You Don't Love Me Anymore chords & lyrics - “Weird Al” Yankovic

You play the

We are working hard to improve our content offering for your instrument.

You can still access it, but it will not be optimised or supported in our premium offering.

You now have access to over 400,000 sheets, tabs and chords!
Discover our Premium offer below:
Free
0.00€/month
  • 400k+ chords and lyrics
  • Video tutorials
  • Create playlists with your favourite songs
  • 200k+ sheet music
  • Zero ads
  • Offline sync for iOS users
Premium
9.99€/month
  • 400k+ chords and lyrics
  • Video tutorials
  • Create playlists with your favourite songs
  • 200k+ sheet music
  • Zero ads
  • Offline sync for iOS users
You Don't Love Me Anymore by “Weird Al” Yankovic

Play to learn

You Don't Love Me Anymore“Weird Al” Yankovic

0
0
Tracks
is available only in app!
Tempo
is available only in app!
Transpose
-11 11
Loop
is available only in app!
Scroll Speed
slow fast
Micham Parker's avatar
Created by
Micham

Guitar Chords

    Most Popular Scores

    “Weird Al” YankovicBedrock Anthem “Weird Al” YankovicOde to a Superhero “Weird Al” YankovicPancreas “Weird Al” YankovicDo I Creep You Out “Weird Al” YankovicEat It “Weird Al” YankovicTMZ
    Capo 1
    ------
    E |-|-----------------------------------------------|-
    B |-|o-1-----1-----1-----------1-----1-----1-----1--|-
    G |-|--0--------------------------------------------|-
    D |-|--2-----2-h3--0-----------2-h3--0-----2-s3--0--|-
    A |-|o-3-----------------0--3-----------------------|-
    E |-|-----------------------------------------------|-
    E |----------------------------------------------------|-
    B |-1-----1-----1----s6--5--3--1-----------1-----------|-
    G |-0--------------------------------0-h2-----2-p1-----|-
    D |-2-----2-h3--0----s7--5--3--2--------------------3--|-
    A |-3--------------------------3-----------------------|-
    E |----------------------------------------------------|-
    E |-------------------------------------------------|-
    B |-------------1-----------------------1-----------|-
    G |-------0-----------0-----------4-----------4-----|-
    D |----2-----2-----2-----2-----2-----2-----2-----2--|-
    A |-3-----------------------------------------------|-
    E |-------------------------0-----------------------|-
    E |-------------------------------------------------|-
    B |-------3-----------3-----------------1-----------|-
    G |-------------5-----------------2-----------2-----|-
    D |----------------------------0-----0-----0-----0--|-
    A |----5-----5-----5-----5--------------------------|-
    E |-3-----------------------1-----------------------|-
    E |-------------------------------------------------|-
    B |-------------1-----------------------1-----------|-
    G |-------2-----------2-----------0-----------0-----|-
    D |----0-----3-----0-----0-----0-----3-----0-----0--|-
    A |-------------------------------------------------|-
    E |-1-----------------------3-----------------------|-
    E |-------------------------------------------------|-
    B |-------------1-----------------------1--1--1--1--|-
    G |-------2-----------2-----------0-----------------|-
    D |----0-----3-----0-----0-----0-----3-----2-s3--0--|-
    A |-------------------------------------------------|-
    E |-1-----------------------3-----------------------|-
    E |-------------------------------------------------|-
    B |-------------1-----------------------1-----------|-
    G |-------0-----------0-----------4-----------4-----|-
    D |----2-----2-----2-----2-----2-----2-----2-----2--|-
    A |-3-----------------------------------------------|-
    E |-------------------------0-----------------------|-
    E |-------------------------------------------------|-
    B |-------3-----------3-----------------1-----------|-
    G |-------------5-----------------2-----------2-----|-
    D |----------------------------0-----0-----0-----0--|-
    A |----5-----5-----5-----5--------------------------|-
    E |-3-----------------------1-----------------------|-
    E |-------------------------------------------------|-
    B |-------------1-----------------------1-----------|-
    G |-------2-----------2-----------0-----------0-----|-
    D |----0-----3-----0-----0-----0-----3-----0-----0--|-
    A |-------------------------------------------------|-
    E |-1-----------------------3-----------------------|-
    E |-------------------------------------------------|-
    B |-------------1-----------------------1-----------|-
    G |-------2-----------2-----------0-----------0-----|-
    D |----0-----3-----0-----0-----0-----3-----0-----0--|-
    A |-------------------------------------------------|-
    E |-1-----------------------3-----------------------|-
    E |-------------------------------------------------|-
    B |-------------1-----------------------1-----------|-
    G |-------3-----------3--------------2--------2-----|-
    D |----3-----3-----3-----3--------3--------3-----3--|-
    A |-1--------------------------3--------------------|-
    E |-------------------------1-----------------------|-
    E |-------------------------------------------------|-
    B |-------------1-----------------------1-----------|-
    G |-------0-----------0-----------0-----------0-----|-
    D |----2-----2-----2-----2-----0-----3-----0-----0--|-
    A |-3-----------------------------------------------|-
    E |-------------------------3-----------------------|-
    E |-------------------------------------------------|-
    B |-------------1-----------------1-----3----------o|-
    G |-------2-----------2-----------------------2-----|-
    D |----0-----3-----0-----0-----3-----3-----3-----0--|-
    A |------------------------------------------------o|-
    E |-1-----------------------3-----------------------|-
    E |-------------------------------------------------|-
    B |-------------1-----------------------1-----------|-
    G |-------0-----------0-----------2-----------2-----|-
    D |----2-----2-----2-----2-----2-----2-----2-----2--|-
    A |-3-----------------------0-----------------------|-
    E |-------------------------------------------------|-
    E |----------------------1--------------------------|-
    B |-------------1--------1--------------------------|-
    G |-------3-----------3--2--------------------------|-
    D |----3-----3-----3-----3--------------------------|-
    A |-1--------------------3--------------------------|-
    E |----------------------1--------------------------|-
    E |----------------------------------------------|-
    B |-1-----1-----1-----------1-----1-----1-----1--|-
    G |-0--------------------------------------------|-
    D |-2-----2-h3--0-----------2-h3--0-----2-s3--0--|-
    A |-3-----------------0--3-----------------------|-
    E |----------------------------------------------|-
    E |----------------------------------------------|--|-
    B |-1-----1-----1-----6--5--3--1-----------------|--|-
    G |-0-----------------5--5--2--0-----------------|--|-
    D |-2-----2-h3--0-----7--5--3--2-----------------|--|-
    A |-3--------------------------3-----------------|--|-
    E |----------------------------------------------|--|-
    Lyrics
    We've been together for so very long,
    But now things are changing, oh, I wonder what's wrong,
    Seems you don't want me around,
    The passion is gone and the flames died down.
    I guess I lost a bit of self esteem
    That time that you made it with the whole hockey team,
    You use to think I was nice,
    Now you tell all your friends that I'm the Antichrist.
    Oh oh oh oh, why did you disconnect the brakes on my car?
    That kind of thing is hard to ignore.
    Got a funny feeling you don't love me anymore.
    I knew that we were having problems when
    You put those pyranha in my bathtub again.
    You're still the light of my life,
    Oh darling I'm begging won't you put down that knife.
    You know I even think it's kind of cute the way
    You poison my coffee just a little each day
    I still remember the way that you laughted
    When you pushed me down the elevator shaft.
    Oh if you don't mind me asking what it this poisonous cobra
    Doing in my underwear drawer?
    Sometimes I get the thinking you don't love me anymore.
    You slammed my face down on the barbecue grill,
    Now my scars are all healing but my heart never will.
    You set my house on fire.
    You pulled at my chest hairs with an old pair of pliers.
    Oh you think I'm ugly and you say I'm cheap,
    You shaved off my eyebrows when I was asleep.
    You drilled a hole in my head,
    Then you dumped me in a drainage ditch and left me for dead.
    Oh you know this isn't really like you at all,
    You never acted this way before.
    Honey something tells me you don't love me anymore,
    Oh oh no no, got a funny feeling you don't love me anymore.