You play the

We are working hard to improve our content offering for your instrument.

You can still access it, but it will not be optimised or supported in our premium offering.

You now have access to over 400,000 sheets, tabs and chords!
Discover our Premium offer below:
Free
0.00€/month
  • 400k+ chords and lyrics
  • Video tutorials
  • Create playlists with your favourite songs
  • 200k+ sheet music
  • Zero ads
  • Offline sync for iOS users
Premium
9.99€/month
  • 400k+ chords and lyrics
  • Video tutorials
  • Create playlists with your favourite songs
  • 200k+ sheet music
  • Zero ads
  • Offline sync for iOS users
O Juremos by Via Varela

Play to learn

O JuremosVia Varela

0
0
Tracks
is available only in app!
Tempo
is available only in app!
Transpose
-11 11
Loop
is available only in app!
Scroll Speed
slow fast
Elphy Crabtree's avatar
Created by
Elphy

Guitar Chords

    Most Popular Scores

    MetallicaNothing Else Matters PassengerLet Her Go Ed SheeranThinking Out Loud AC/DCHighway to Hell The White StripesSeven Nation Army Shawn MendesStitches
    INTRO:
    (repite 1 vez) (repite 1 vez)
    E:---------------|--------------||-----------------|--------------- ||
    B:---------------|-----3--------||-----------------|--------------- ||
    G:---------------|2----2-----2--||-----------0-0---|---------------*||
    D:2--------------|2----0-----2-*||-----2-4-2-----4-|2-4-2-3-h4p-3--*||
    A:2--------------|0----------0- ||3-h4-------------|--------------- ||
    E:0--0-3-4---3-4-|------------- ||-----------------|--------------- ||
    C
     
    Todo sobre intro:
    O juremos con gloria vivir.
    O juremos con gloria vivir.
    O juremos con gloria vivir.
    O juremos con gloria vivir.
    Riff2:
    (repite 3 veces)
    E :|| ----------------- ||------------6-7-|----------------||
    B :|| ----------------- ||------------6-7-|----------------||
    G :||*-----------------*||------------6-7-|----------------||
    D :||*--2--------------*||------------5-6-|----------------||
    A :|| --2-2-4-5-4------ ||2-2-4-5-4-2-6-7-|----------------||
    E :|| --0-0-0-0-0-3^--- ||0-0-------------|----------------||
    Todo sobre Riff 2:
    Besó el sucio piso pero no se levantó,
    se ahogó el las horas de una triste tradición.
    Un futuro opaco de abrazos y traición,
    lloró toda la plaza y su revolución.
    C#mBBsus4
    Tendré cuidado seré mejor, 
    AB/AA
    tendré el orgullo de hablar por vos. 
    Sobre intro
    O juremos con glora vivir.
    O juremos con glora vivir.
    Sobre Riff2
    Fué una presa fácil por un himno que mintió,
    besó el sucio piso pero no se levantó.
    Lo ví tan solo y ese fue mi adiós,
    lloré solo en la esquina y ese fue mi adiós.
    C#mBBsus4
    Tendré cuidado seré mejor, 
    AB/AA
    tendré el orgullo de hablar por vos, 
    C#mBBsus4
    habrá trincheras en mi canción, 
    AB/AA
    tu muerte fácil tendrá valor. 
    Riff3:
    E :| ----------------|------------------ 1|
    B :| ----------------|------------------ ||
    G :|*----------------|-----4-2----------*||
    D :|*--------4-2-2---|-----4-2----------*||
    A :| 2-2-2-4-5-4-2-4-|---2-2-0---------- ||
    E :| 0-0-------------|3-^0-----3^----^-- ||
    Todo sobre riff2:
    O juremos con gloria vivir.
    O juremos con gloria vivir.
    O juremos con gloria vivir.
    O juremos con gloria vivir.
    Todo sobre riff3:
    O juremos con gloria vivir.
    O juremos con gloria vivir.
    O juremos con gloria vivir.
    O juremos con gloria vivir.