You play the

We are working hard to improve our content offering for your instrument.

You can still access it, but it will not be optimised or supported in our premium offering.

You now have access to over 400,000 sheets, tabs and chords!
Discover our Premium offer below:
Free
0.00$/month
  • 400k+ chords and lyrics
  • Video tutorials
  • Create playlists with your favourite songs
  • 200k+ sheet music
  • Zero ads
  • Offline sync for iOS users
Premium
9.99$/month
  • 400k+ chords and lyrics
  • Video tutorials
  • Create playlists with your favourite songs
  • 200k+ sheet music
  • Zero ads
  • Offline sync for iOS users
Greensleeves by [traditional]
video thumbnail
More Videos

Play to learn

Greensleeves[traditional]

0
0
Tracks
is available only in app!
Tempo
is available only in app!
Transpose
-11 11
Loop
is available only in app!
Sheet
is available only in app!
Scroll Speed
slow fast
Lucas Moraes's avatar
Created by
Lucas

Guitar Chords

    Most Popular Scores

    [traditional]Greensleeves [traditional]Jingle Bells [traditional]Greensleeves [traditional]The King Of The Fairies [traditional]La Sandunga [traditional]Lithuanian National Anthem
    Four Strings Bass {Tab}
    G
    G/-----------5-----7---9----10-9----7----4----------------4---7---------------------------4--------------/ 
    D/------7--- 7-------------------------5---------5------7--------5-------7---7-----6-7-----------6-------/
    A/--------------------------------------------------------------------------------0------------------------7--/
    E/----------------------8-------------------------3----------------------------------------------0-------------/
    G/-----------5-----7---9----10-9----7----4----------------4---7-----4--------------------------/
    D/------7--- 7-------------------------5---------5------7--------5-----------7--6----4--6--7--7-/
    A/-----------------------------------------------------------------------------------0--------------0-/
    E/----------------------8------------------------3---------------------------------------------------/