You play the

We are working hard to improve our content offering for your instrument.

You can still access it, but it will not be optimised or supported in our premium offering.

You now have access to over 400,000 sheets, tabs and chords!
Discover our Premium offer below:
Free
0.00€/month
  • 400k+ chords and lyrics
  • Video tutorials
  • Create playlists with your favourite songs
  • 200k+ sheet music
  • Zero ads
  • Offline sync for iOS users
Premium
9.99€/month
  • 400k+ chords and lyrics
  • Video tutorials
  • Create playlists with your favourite songs
  • 200k+ sheet music
  • Zero ads
  • Offline sync for iOS users
Pretty Fly (For a White Guy) by The Offspring

Play to learn

Pretty Fly (For a White Guy)The Offspring

0
0
Tracks
is available only in app!
Tempo
is available only in app!
Transpose
-11 11
Loop
is available only in app!
Sheet
is available only in app!
Scroll Speed
slow fast
Klodwig Ferguson's avatar
Created by
Klodwig

Guitar Chords

    Most Popular Scores

    The DoorsBreak On Through The OffspringPretty Fly (For a White Guy) The DoorsWhen the Music's Over Kings of LeonUse Somebody The DoorsThe Crystal Ship The DoorsThe End
    Introdução:
    (Gunter glieben glauchen globen)
    Give it to me baby
    Give it to me baby
    Give it to me baby
    And all the girlies say
    I'm pretty fly for a white guy
    B5F#5A5B5E5D5
    E|------------------------------------------| 
    B|------------------------------------------|
    G|-4--x-4------2---4-4-x-4/9---7------------|
    D|-4--x-4-4----2---4-4-x-4/9---7------------|
    A|-2--x-2-4----0---2-2-x-2/7---5------------|
    E|--------2---------------------------------|
    B5F#5A5B5
    E|------------------------------------------| 
    B|------------------------------------------|
    G|-4--x-4------2---4------------------------|
    D|-4--x-4-4----2---4------------------------|
    A|-2--x-2-4----0---2------------------------|
    E|--------2---------------------------------|
    Uno, dos, tres, cuatro, cinco, cinco, seis
    Primeira Estrofe:
    You know it's kind of hard
    Just to get along today
    A subject isn't cool
    But he thinks it anyway
    He may not have a clue
    And he may not have style
    But everything he lacks
    Well, he makes up in denial
    Primeiro Refrão:
    E|------------------------------------------|
    B|------------------------------------------|
    G|--------10/11--10/11---------10/11--10/11-|
    D|-9--x-9-10/11--10/11--9--x-9-10/11--10/11-|
    A|-9--x-9—8/--9---8/-9--9--x-9--8/-9---8/-9-|
    E|-7--x-7---------------7--x-7--------------|
    E|------------------------------------------|
    B|------------------------------------------|
    G|-7--x-7-----7--7/9--9-9--7----------------|
    D|-7--x-7--7--7--7/9--9-9--7--7-------------|
    A|-5--x-5--7--5--5/7--7-7--5--7-------------|
    E|---------5------------------5-------------|
    E|------------------------------------------|
    B|------------------------------------------|
    G|--------10/11--10/11---------10/11--10/11-|
    D|-9--x-9-10/11--10/11--9--x-9-10/11--10/11-|
    A|-9--x-9—8/--9---8/-9--9--x-9--8/-9---8/-9-|
    E|-7--x-7---------------7--x-7--------------|
    E|------------------------------------------|
    B|------------------------------------------|
    G|-7--x-7-----7--7/9--9-7--9-10-9-7---------|
    D|-7--x-7--7--7--7/9--9-7--9-10-9-7---------|
    A|-5--x-5--7--5--5/7--7-5--7--8-7-5---------|
    E|---------5--------------------------------|
    E|------------------------------------------|
    B|------------------------------------------|
    G|--------10/11--10/11---------10/11--10/11-|
    D|-9--x-9-10/11--10/11--9--x-9-10/11--10/11-|
    A|-9--x-9—8/--9---8/-9--9--x-9--8/-9---8/-9-|
    E|-7--x-7---------------7--x-7--------------|
    E|------------------------------------------|
    B|------------------------------------------|
    G|-7--x-7-----7--7/9--9-9--7----------------|
    D|-7--x-7--7--7--7/9--9-9--7--7-------------|
    A|-5--x-5--7--5--5/7--7-7--5--7-------------|
    E|---------5------------------5-------------|
    E|------------------------------------------|
    B|------------------------------------------|
    G|-12--x-12-----12--2--x-2----2-------------|
    D|-12--x-12-12--12--2--x-2-2--2-------------|
    A|-10--x-10-12--10--0--x-0-2--0-------------|
    E|----------10-------------0----------------|
    E|------------------------------------------|
    B|------------------------------------------|
    G|-----11-10-9---7/9------------------------|
    D|-9-9-11-10-9-9-7/9-9----------------------|
    A|-9-9--9--8-7-9-5/7-9----------------------|
    E|-7-7---------7-----7----------------------|
    So don't debate
    Play it straight
    You know he really
    Doesn't get it anyway
    Gonna play the field
    And keep it real
    For you no way
    For you no way
    So if you don't rate
    Just overcompensate
    At least you'll know
    You can always go on Ricki Lake
    The world needs wannabes
    So hey, hey do that brand new thing
    Interlúdio:
    Give it to me baby
    Give it to me baby
    Give it to me baby
    And all the girlies say
    I'm pretty fly for a white guy
    Segunda Estrofe:
    He needs some cool tunes
    Not just any will suffice
    But they didn't have Ice Cube
    So he bought Vanilla Ice
    Now cruising in his Pinto
    He sees homies as he pass
    But if he looks twice
    They're gonna kick his lily ass
    Segundo Refrão:
    So don't debate
    Play it straight
    You know he really
    Doesn't get it anyway
    Gonna play the field
    And keep it real
    For you no way
    For you no way
    So if you don't rate
    Just overcompensate
    At least you'll know
    You can always go on Ricki Lake
    The world needs wannabes
    So hey, hey do that brand new thing
    Ponte:
    Now he's getting a tattoo, yeah
    He's gettin' ink done
    He asked for a "13"
    But they drew a "31"
    Friends say he's trying too hard
    And he's not quite hip
    But in his own mind
    He's the, he's the dopest trip
    Interlúdio:
    Give it to me baby
    Give it to me baby
    Give it to me baby
    uno, dos, tres, cuatro, cinco, cinco, seis
    Refrão Final:
    So don't debate
    Play it straight
    You know he really
    Doesn't get it anyway
    Gonna play the field
    And keep it real
    For you no way
    For you no way
    So if you don't rate
    Just overcompensate
    At least you'll know
    You can always go on Ricki Lake
    The world needs wannabes
    The world loves wannabes
    Let's get some more wannabes
    Hey, hey do that brand new thing