Do It chords & lyrics - The Doors

You play the

We are working hard to improve our content offering for your instrument.

You can still access it, but it will not be optimised or supported in our premium offering.

You now have access to over 400,000 sheets, tabs and chords!
Discover our Premium offer below:
Free
0.00€/month
  • 400k+ chords and lyrics
  • Video tutorials
  • Create playlists with your favourite songs
  • 200k+ sheet music
  • 50% off PDF downloads
  • Zero ads
  • Offline sync for iOS users
Premium
9.99€/month
  • 400k+ chords and lyrics
  • Video tutorials
  • Create playlists with your favourite songs
  • 200k+ sheet music
  • 50% off PDF downloads
  • Zero ads
  • Offline sync for iOS users
Do It by The Doors

Play to learn

Do ItThe Doors

0
0
Tracks
is available only in app!
Tempo
is available only in app!
Transpose
-11 11
Loop
is available only in app!
Scroll Speed
slow fast
Lesa Wood's avatar
Created by
Lesa

Guitar Chords

    Most Popular Scores

    The DoorsRoadhouse Blues Maroon 5Payphone Arctic MonkeysCornerstone Maroon 5She Will Be Loved Death Cab for CutieI Will Follow You Into the Dark David BowieSpace Oddity
    Intro :
    Ha, ha, ha, ha
    Yeah
    Please me, yeah
    Please baby
    Please, please
    1º parte
    G
    Please, please listen... 
    E| ------------------------------------------------|
    B| -------------------------------------------------|
    G| ------------------------------------------------|
    D| --5---5----5/3--------------------------------------2/0-------|
    A| ------------------5/3-------------------------------------2/0-------|
    E| ------------------------6(7)----3----0---1--2--3----------------3----|
    2º parte
    A
    You gotta please 
    G| -------2--------2--2--------2------2--2----|
    D| -0h2-----0h2----------0h2-----0h2--------5-5-5-5-5-5-5-4-4-4-4-4-4-4---|
    A| ----------------------|
    E| ----------------------|
    G
    Please, please listen... 
    E| -------------------------------------------------|
    B| -------------------------------------------------|
    G| -------------------------------------------------|
    D| --5---5---5/3------------------------------------2/0-------|
    A| ----------------5/3-----------------------------------2/0-------|
    E| -----------------------6(7)----3----0---1--2--3-------------3----|
    A
    Said please, please listen... 
    E| -------------------------------------------------|
    B| -------------------------------------------------|
    G| -------------------------------------------------|
    D| --7---7-----7/5--------------------------------------4/2-------|
    A| -------------------7/5------------------------------------4/2-------|
    E| --------------------------8(9)----5----2---3--4--5--------------5----|
    GEm
     
    E| --3---------------------|----0---------------------|
    B| --3---3-3-----3—3-------|----0--0--0---0—0----|
    G| --4--------4---------4--|----0-------0-----0-|
    D| --5---------------------|----2----------------------|
    A| --5---------------------|----2-----------------------|
    E| --3---------------------|----0-----------------------|
    F#mADB
    I’m asking 
    E| -2---------------------|---5------------|-----------------------|-7-------------------|
    B| -2---2--2----2--2------|---5---5--5-----|-----------------------|-7---7—7------7--7---|
    G| -2---------2--------2--|---6----------6-|------7—7-----7--7-----|-8--------8--------8-|
    D| -4---------------------|---7------------|-----------7--------7--|-9-------------------|
    A| -4---------------------|---7------------|-5---------------------|-9--
    E| -2---------------------|---5------------|-5---------------------|-7--
    Cifra:
    F
    Ha, ha, ha, ha 
    Yeah
    Please me, yeah
    Please baby
    Please, please
    1º parte
    G
    Please, please listen to me children 
    Please, please listen to me children
    Please, please listen to me children
    Please, please listen to me children
    CD
    You are the ones who will rule the world 
    G
    Listen to me children 
    Listen to me children
    Please, please, listen to me children
    Please, please, listen to me children
    CD
    You are the ones who will rule the world 
    2º parte
    You gotta please me
    All night
    G
    Please, please listen to me children 
    A
    Said please, please, listen to me children 
    GEm
    Please, yeah, please me 
    F#mADB
    I'm askin' you 
    A
    Please, please listen to me children 
    Please, please listen to me children
    Please, please listen to me children
    Please, my children
    Please, children
    Please
    Children
    Final: