Summer Deep chords & lyrics - T. Rex

You play the

We are working hard to improve our content offering for your instrument.

You can still access it, but it will not be optimised or supported in our premium offering.

You now have access to over 400,000 sheets, tabs and chords!
Discover our Premium offer below:
Free
0.00€/month
  • 400k+ chords and lyrics
  • Video tutorials
  • Create playlists with your favourite songs
  • 200k+ sheet music
  • Zero ads
  • Offline sync for iOS users
Premium
9.99€/month
  • 400k+ chords and lyrics
  • Video tutorials
  • Create playlists with your favourite songs
  • 200k+ sheet music
  • Zero ads
  • Offline sync for iOS users
Summer Deep by T. Rex
video thumbnail
More Videos

Play to learn

Summer DeepT. Rex

0
0
Tracks
is available only in app!
Tempo
is available only in app!
Transpose
-11 11
Loop
is available only in app!
Scroll Speed
slow fast
beth's avatar
Created by
beth

Guitar Chords

    Most Popular Scores

    The DoorsBreak On Through Maroon 5Sugar Maroon 5Sunday Morning Kings of LeonSex on Fire Maroon 5Won't Go Home Without You OasisDon't Look Back In Anger
    BbDmGm
    Summer deep is in the hills again 
    AbF
    His lady is a lioness 
    BbDmGm
    Winds of birds blow through the fields again 
    AbCm
    Invaders from the true worlds 
    BbDmGm
    A coat of grapes is on my back again 
    AbF
    I ride upon my zebra 
    BbDmGm
    Pterodactyl beak hat on my brow 
    AbCm
    The truth is like a stranger 
    F
    Be like you could 
    Gm
    All my friends say. Riff 1 
    BbDmGm
    Summer deep is in the hills again 
    AbF
    His lady is a lioness 
    BbDmGm
    Winds of birds blow through the fields again 
    AbCm
    Invaders from the true worlds 
    BbDmGm
    A coat of grapes is on my back again 
    AbF
    I ride upon my zebra 
    BbDmGm
    Pterodactyl beak hat on my brow 
    AbCm
    The truth is like a stranger 
    F
    Be like you could 
    Gm
    All my friends say. Riff 1 
    F
    Be like you could 
    Gm
    All my friends say. Riff 1 
    F
    Be like you could 
    Gm
    All my friends say. Riff 2 
    Riff 1:
    -|-------------------------------------------|
    -|-------------------------------------------|
    -|----------------5b(7)--(7)b5--3--5-----|
    -|-------------------------------------------|
    -|6-----5-----------------------------------|
    -|-------------------------------------------|
    Riff 2:
    -|-----------------------------------------------------------------------------------------------------|
    -|-----------------------------------------------------------------------------------------------------|
    -|-----------------5b(7)--(7)b5--3--5----3--------------------------------------------------------|
    -|----------------------------------------------------5--3--5b(7)--(7)b5--3--5----3--------------|
    -|6------5-------------------------------------------------------------------------------------5--3--|
    -|-----------------------------------------------------------------------------------------------------|
    -|--------------------------------------------------------------------3------------------|
    -|--------------------------------------------------------------------3------------------|
    -|--------------------------------------------------------------------4------------------|
    -|--------------------------------------------------------------------5------------------|
    -|5b(7)--(7)b5--3--5----3----------------------------------------5------------------|
    -|------------------------------5b(6)--(6)b5--3--3--3--3----3--3------------------|
    Tried my best. I couldn't find ANY tabs of this song
    email me at eliza100@btinternet.com or leave a comment