Incinerate chords & lyrics - Sonic Youth

You play the

We are working hard to improve our content offering for your instrument.

You can still access it, but it will not be optimised or supported in our premium offering.

You now have access to over 400,000 sheets, tabs and chords!
Discover our Premium offer below:
Free
0.00€/month
  • 400k+ chords and lyrics
  • Video tutorials
  • Create playlists with your favourite songs
  • 200k+ sheet music
  • Zero ads
  • Offline sync for iOS users
Premium
9.99€/month
  • 400k+ chords and lyrics
  • Video tutorials
  • Create playlists with your favourite songs
  • 200k+ sheet music
  • Zero ads
  • Offline sync for iOS users
Incinerate by Sonic Youth

Play to learn

IncinerateSonic Youth

0
0
Tracks
is available only in app!
Tempo
is available only in app!
Transpose
-11 11
Loop
is available only in app!
Sheet
is available only in app!
Scroll Speed
slow fast
Jins Adler's avatar
Created by
Jins

Guitar Chords

    Most Popular Scores

    AC/DCRide On Avril LavigneI’m With You Avril LavigneLet Me Go 3 Doors DownHere Without You Depeche ModeSomebody Avril LavigneWish You Were Here
    Versão simplificada:
    Intro: D#
    G:|--8----|
    D:|--8----|
    A:|--6----|
    B:|----------------------|
    G:|----------------------|
    D:|----------------------|
    A:|--6-6-6-6-------------|
    E:|--6-6-6-6-------------|
    2x
    B:|----------6-----------|
    G:|----------------------|
    D:|----------------------|
    A:|----------------------|
    E:|----------------------|
    B:|----------------------|
    G:|-5----7-7--8-8--7-7---|
    D:|----------------------|
    A:|----------------------|
    E:|----------------------|
    Repete
    Dedilhado nos Power chords de C e Bb e vai até a ponte 'Incinerate'
    "Incinerate...Incinerate..." 4x
    B:|----------------------|
    G:|-----5-7--5-5---------|
    D:|-5-8-------8-5--------|
    A:|----------------------|
    E:|----------------------|
    Refrão base: C - Bb
    SOLO:
    Base do solo:
    B:|-4---3-4-6--4-3---4--|
    G:|-3----------------3--|
    D:|---------------------|
    A:|---------------------|
    E:|---------------------|
    Outra guitarra (sempre com bend):
    B:|-666666666---888888888---101010101010---1212121212-151515151515---1717171717-|
    G:|-----------------------------------------------------------------------------|
    D:|-----------------------------------------------------------------------------|
    A:|-----------------------------------------------------------------------------|
    E:|-----------------------------------------------------------------------------|
    Repete desde o início até o 'Incinerate...' 8x