Fire of Rock chords & lyrics - Racer X

You play the

We are working hard to improve our content offering for your instrument.

You can still access it, but it will not be optimised or supported in our premium offering.

You now have access to over 400,000 sheets, tabs and chords!
Discover our Premium offer below:
Free
0.00€/month
  • 400k+ chords and lyrics
  • Video tutorials
  • Create playlists with your favourite songs
  • 200k+ sheet music
  • Zero ads
  • Offline sync for iOS users
Premium
9.99€/month
  • 400k+ chords and lyrics
  • Video tutorials
  • Create playlists with your favourite songs
  • 200k+ sheet music
  • Zero ads
  • Offline sync for iOS users
Fire of Rock by Racer X

Play to learn

Fire of RockRacer X

0
0
Tracks
is available only in app!
Tempo
is available only in app!
Transpose
-11 11
Loop
is available only in app!
Sheet
is available only in app!
Scroll Speed
slow fast
Houaria Cain's avatar
Created by
Houaria

Guitar Chords

    Most Popular Scores

    David BowieSpace Oddity Maroon 5Payphone Maroon 5She Will Be Loved Maroon 5This Love The DoorsLight My Fire David BowieRebel Rebel
    PM----| PM----| PM|
    Bm
    PM| PM----| PM| PM| PM----| PM----| PM--- 
    |---------------------------|---------------------------|
    |---------------------------|---------------------------|
    |-----4---------2-----2-----|-4---------2---------4-----|
    |-----4---------2-----2-----|-4---------2---------4-----|
    |-2-2---2-2-2-2---2-2---2-2-|---2-2-2-2---2-2-2-2---2-2-|
    |---------------------------|---------------------------|
    ---| PM----| PM| PM|
    Bm
    PM----| PM----| PM--- 
    |---------------------------|
    |---------------------------|
    |-2---------4---------2-----|
    |-2---------4---------2-----|
    |---2-2-2-2---2-2-2-2---2-2-|
    |---------------------------|
    F#m7
    ---| PM----| PM| ~~~ PM----| PM----| PM| 
    |--------------------------||---------------------------|
    |--------------------------||---------------------------|
    |-----4---------2----------||-4---------2---------4-----|
    |-----4---------2----------||-4---------2---------4-----|
    |-2-2---2-2-2-2---2-2-{2}--||---------------------------|
    |--------------------------||---2-2-2-2---2-2-2-2---2-2-|
    F#m7
    PM| PM----| PM| PM| PM----| PM----| PM--- 
    ---| PM----| PM| PM|
    F#m7
    PM----| PM----| PM------| PM----| PM| PM| 
    |---------------------------|---------------------------|
    |---------------------------|---------------------------|
    |-4---------2---------4-----|-----2---------4-----4-----|
    |-4---------2---------4-----|-----2---------4-----4-----|
    |---------------------------|---------------------------|
    |---2-2-2-2---2-2-2-2---2-2-|-2-2---2-2-2-2---2-2---2-2-|
    PM----| PM----| PM------| PM----| PM| PM|
    (verso 1 e 2)
    Esus4EEsus4E
    PM------| PM----| PM----| 
    ||-----------------|----------------------|---------------------------|
    ||o-10----9-(9)----|-(9)----(9)-----------|-10---------10---------9---|
    ||---9----9-(9)----|-(9)----(9)-----------|--9----------9---------9---|
    ||---9----9-(9)----|-(9)----(9)-----------|--9----------9---------9---|
    ||o--7----7-(7)----|-(7)----(7)-----------|--7----------7---------7---|
    ||-----------------|------------0-0-0-0-0-|----0-0-0-0----0-0-0-0-----|
    EEsus4
    PM PM 
    |-----------------|------------------|--------------------------------|
    |-(9)------(9)----|-9-----10-(10)----|-(10)----(10)-10----------------|
    |-(9)------(9)----|-9------9--(9)----|--(9)-----(9)--------9----------|
    |-(9)------(9)----|-9------9--(9)----|--(9)-----(9)--------------9----|
    |-(7)------(7)----|------------------|--------------------------------|
    |--------------10-|----10------------|--------------------------------|
    |
    |-----------------|------------------|-----------------------14-17p14-|
    |-----------------|------------------|--------------14h15h17----------|
    |-----------------|------------------|--------------------------------|
    |-----------------|------------------|--------------------------------|
    |-----------------|------------------|--------------------------------|
    |-----------------|------------------|--------------------------------|
    EEsus4
    PM------| PM------| 
    |--------------------------------------------------|
    |--9------------------9----------------10----------|
    |--9------------------9-----------------9----------|
    |--9------------------9-----------------9----------|
    |--------------------------------------------------|
    |-------10-10-10-10--------10-10-10-10-------------|
    |
    |-16h17p16-14-16-17-/19b21-19-17-16----------------|
    |-----------------------------------19-17-15-------|
    |--------------------------------------------18s16-|
    |--------------------------------------------------|
    |--------------------------------------------------|
    |--------------------------------------------------|
    PM|
    |----------------------------------------------------|
    |-(10)-----------------------------------------------|
    |--(9)-----------------------------------------------|
    |--(9)-----------------------------------------------|
    |----------------------------------------------------|
    |-----------------------------------------------0--0-|
    |
    |----------------------------------------------------|
    |--14h==15p14s12-14p12-------------------------------|
    |----------------------14p13-14p13-11-13-11----------|
    |-------------------------------------------14-12-11-|
    |----------------------------------------------------|
    |----------------------------------------------------|
    Esus4EEsus4E
    PM------| PM----| PM----| 
    |----------------|----------------------|--------------------------|
    |-10----9-(9)----|-(9)----(9)-----------|-10---------10---------9--|
    |--9----9-(9)----|-(9)----(9)-----------|--9----------9---------9--|
    |--9----9-(9)----|-(9)----(9)-----------|--9----------9---------9--|
    |--7----7-(7)----|-(7)----(7)-----------|--7----------7---------7--|
    |----------------|------------0-0-0-0-0-|----0-0-0-0----0-0-0-0----|
    |
    |----------------|----------------------|--------------------------|
    |----------------|----------------------|--------------------------|
    |----------------|----------------------|--------------------------|
    |----------------|----------------------|--------------------------|
    |-14-------------|----------------------|--------------------------|
    |----------------|----------------------|--------------------------|
    DDsus4
    PM PM 
    (pré-refrão)
    $
    DDsus4F#m7
    PM----| PM----| 
    |------------------------|--------------||------0-(0)------|
    |-7---------7---------8--|-(8)----------||-------------3---|
    |-7---------7---------7--|-(7)----------||-----------------|
    |-7---------7---------7--|-(7)----------||-----------------|
    |------------------------|----------x\--||-----------------|
    |---8-8-8-8---8-8-8-8----|--------------||-2---------------|
    G6Asus4Bm7
    PM--| PM 
    |------0-(0)-----|------0-(0)-----|-----------------|
    |-------------3--|-------------3--|-------5---7-----|
    |----------------|----------------|-----7-------7\--|
    |----------------|----------------|---7-----7-------|
    |----------------|-0--------------|-----------------|
    |-3--------------|----------------|-7---------------|
    (refrão)
    F#m7
    PM----| PM----| PM------| PM----| PM| PM| 
    |---------------------------|---------------------------|
    |---------------------------|---------------------------|
    |-4---------2---------4-----|-----2---------4-----4-----|
    |-4---------2---------4-----|-----2---------4-----4-----|
    |---------------------------|---------------------------|
    |---2-2-2-2---2-2-2-2---2-2-|-2-2---2-2-2-2---2-2---2-2-|
    PM----| PM----| PM|
    F#m7
    PM| PM----| PM| PM| PM----| PM----| PM--- 
    |---------------------------|---------------------------|
    |---------------------------|---------------------------|
    |-----4---------2-----2-----|-4---------2---------4-----|
    |-----4---------2-----2-----|-4---------2---------4-----|
    |---------------------------|---------------------------|
    |-2-2---2-2-2-2---2-2---2-2-|---2-2-2-2---2-2-2-2---2-2-|
    ---| PM----| PM| PM|
    F#m7
    PM--| PM--| PM----| PM----| PM| 
    |-----------------|------------------||---------------------------|
    |-----------------|-----------------o||---------------------------|
    |-----------------|------------------||-4---------2---------4-----|
    |-4-2-------2-----|------------------||-4---------2---------4-----|
    |-----5-4-2---5-4-|-2-0-5-4-2-------o||---------------------------|
    |-----------------|-----------5-4-0--||---2-2-2-2---2-2-2-2---2-2-|
    F#m7
    PM| PM----| PM| PM| PM----| PM----| PM--- 
    ---| PM----| PM| PM|
    F#m7
    PM----| PM----| PM------| PM----| PM| PM| PM--| PM 
    |---------------------------|---------------------------|-----------------|
    |---------------------------|---------------------------|-----------------|
    |-4---------2---------4-----|-----2---------4-----4-----|-----------------|
    |-4---------2---------4-----|-----2---------4-----4-----|-4-2-------2-----|
    |---------------------------|---------------------------|-----5-4-2---5-4-|
    |---2-2-2-2---2-2-2-2---2-2-|-2-2---2-2-2-2---2-2---2-2-|-----------------|
    (solo)
    F#5
    |-----------------||-------------------------------------------------| 
    |-----------------||-------------------------------------------------|
    |-----------------||-------------------------------------------------|
    |-----------------||----------------------------16-19p16-18p16----16-|
    |-2-0-5-4-2-------||----16-19p16-17p16----16-17----------------19----|
    |-----------5-4-0-||-17----------------19----------------------------|
    |
    |-----------------||-------------------------------------------------|
    |-----------------||-------------------------------------------------|
    |-----------------||-------------------------------------------------|
    |-----------------||----------------------------12-16p12-14p12----12-|
    |-----------------||----12-16-12-14p12----12-14----------------16----|
    |-----------------||-14----------------16----------------------------|
    |----------------------------17-21p17-19p17----17--|
    |-------------------------19----------------21-----|
    |----16-19p16-18p16----16--------------------------|
    |-18----------------19-----------------------------|
    |--------------------------------------------------|
    |--------------------------------------------------|
    |
    |----------------------------14-17p14-16p14----14--|
    |-------------------------14----------------17-----|
    |----13-16p13-14p13----13--------------------------|
    |-14----------------16-----------------------------|
    |--------------------------------------------------|
    |--------------------------------------------------|
    F#mE
    |-19b21====19-(19)-20r-19--|-(19)----19p17----------17-------| 
    |--------------------------|---------------21p17-19----21p17-|
    |--------------------------|---------------------------------|
    |--------------------------|---------------------------------|
    |--------------------------|---------------------------------|
    |--------------------------|---------------------------------|
    |
    |-16b17====16-(16)-18r-16--|-(16)----16p14----------14-------|
    |--------------------------|---------------17p14-15----17p14-|
    |--------------------------|---------------------------------|
    |--------------------------|---------------------------------|
    |--------------------------|---------------------------------|
    |--------------------------|---------------------------------|
    D
    |-17b19====17-(17)-19r-17--|-(17)----17p16----------16-------| 
    |--------------------------|---------------19p15-17----19p15-|
    |--------------------------|---------------------------------|
    |--------------------------|---------------------------------|
    |--------------------------|---------------------------------|
    |--------------------------|---------------------------------|
    |
    |-14b16====14-(14)-15r-14--|-(14)----14p12----------12-------|
    |--------------------------|---------------15p12-14----15p12-|
    |--------------------------|---------------------------------|
    |--------------------------|---------------------------------|
    |--------------------------|---------------------------------|
    |--------------------------|---------------------------------|
    DD#m7
    |-16b17====16-(16)r/-19-21--|-(21)----17-16-14----------------| 
    |---------------------------|------------------17-15p14-------|
    |---------------------------|---------------------------16-14-|
    |---------------------------|---------------------------------|
    |---------------------------|---------------------------------|
    |---------------------------|---------------------------------|
    |
    |-12b14====12-(12)r/-16-17--|-(17)----14-12-10----------------|
    |---------------------------|------------------14-12p10-------|
    |---------------------------|---------------------------13-11-|
    |---------------------------|---------------------------------|
    |---------------------------|---------------------------------|
    |---------------------------|---------------------------------|
    E
    |--3--| |--3--| 
    |----------12-16p12h14h16p14h16p14p12----12-------------|
    |-------------------------------------------------------|
    |-13h14h16----------------------------16----16-14-13----|
    |----------------------------------------------------14-|
    |-------------------------------------------------------|
    |-------------------------------------------------------|
    |
    |-----------9-12--9h10h12p10h12p10p=9-----9-------------|
    |-------------------------------------------------------|
    |--9h11h13----------------------------13----13-11--9----|
    |----------------------------------------------------11-|
    |-------------------------------------------------------|
    |-------------------------------------------------------|
    DC#mG#m
    |-------------------------------|-18b19r(18)-16---------------------------| 
    |-------------------------------|-----------------------------17p16-------|
    |-18--14-(14)----16--13-(13)----|---------------18b20==(18)r--------18p16-|
    |-------------16-------------14-|-----------------------------------------|
    |-------------------------------|-----------------------------------------|
    |-------------------------------|-----------------------------------------|
    |
    |-------------------------------|-14b16r(14)-11---------------------------|
    |-------------------------------|-----------------------------14p12-------|
    |-14--11-(11)----13---9--(9)----|---------------15b16==(15)r--------15p13-|
    |-------------12-------------11-|-----------------------------------------|
    |-------------------------------|-----------------------------------------|
    |-------------------------------|-----------------------------------------|
    F#E
    |--------------------------------| 
    |-19-17h19p17p16--------------17-|
    |----------------18-16-15--16----|
    |--------------------------------|
    |--------------------------------|
    |--------------------------------|
    |
    |--------------------------------|
    |-16-14h16p14p13-----------------|
    |----------------15-13-----13-16-|
    |----------------------16--------|
    |--------------------------------|
    |--------------------------------|
    C#m
    |-------------|-------------|-11b12r(11)-9--------------------------| 
    |-(17)--------|-(17)--------|----------------------------10p9-------|
    |-------------|-------------|--------------11b13==(11)r-------11p=9-|
    |-------------|-------------|---------------------------------------|
    |-------------|-------------|---------------------------------------|
    |-------------|-------------|---------------------------------------|
    |
    |-------------|-------------|---------------------------------------|
    |-------------|-------------|-12b14r(12)-9--------------------------|
    |-(16)--------|-{16}--------|----------------------------11p9-------|
    |-------------|-------------|--------------13b14==(13)r-------13p11-|
    |-------------|-------------|---------------------------------------|
    |-------------|-------------|---------------------------------------|
    BA
    |------------------------------|-------------------|-17----|| 
    |-12-10h12p10p9-------------10-|-(10)--------(10)/-|-------||
    |---------------11--9-8---9----|-------------------|-------||
    |------------------------------|-------------------|-------||
    |------------------------------|-------------------|-------||
    |------------------------------|-------------------|-------||
    |
    |------------------------------|-------------------|-------||
    |------------------------------|-------------------|-16----||
    |-13-11h13p11p9--------------9-|--(9)---------(9)/-|-------||
    |---------------13-11-9--11----|-------------------|-------||
    |------------------------------|-------------------|-------||
    |------------------------------|-------------------|-------||
    (pós-solo)
    Bm
    PM----| PM----| PM------| PM----| PM| PM| 
    PM----| PM----| PM|
    Bm
    PM| PM----| PM| PM| PM----| PM----| PM--- 
    |---------------------------|---------------------------|
    |---------------------------|---------------------------|
    |-----4---------2-----2-----|-4---------2---------4-----|
    |-----4---------2-----2-----|-4---------2---------4-----|
    |-2-2---2-2-2-2---2-2---2-2-|---2-2-2-2---2-2-2-2---2-2-|
    |---------------------------|---------------------------|
    ---| PM----| PM| PM|
    Bm
    PM----| PM----| PM--- 
    |---------------------------|
    |---------------------------|
    |-2---------4---------2-----|
    |-2---------4---------2-----|
    |---2-2-2-2---2-2-2-2---2-2-|
    |---------------------------|
    F#m7
    ---| PM----| PM| ~~~ PM----| PM----| PM| 
    |--------------------------||---------------------------|
    |--------------------------||---------------------------|
    |-----4---------2----------||-4---------2---------4-----|
    |-----4---------2----------||-4---------2---------4-----|
    |-2-2---2-2-2-2---2-2-{2}--||---------------------------|
    |--------------------------||---2-2-2-2---2-2-2-2---2-2-|
    PM| PM----| PM| PM| PM----| PM----| PM---
    ---| PM----| PM| PM|
    F#m7
    PM----| PM----| PM------| PM----| PM| PM| 
    |---------------------------|---------------------------|
    |---------------------------|---------------------------|
    |-4---------2---------4-----|-----2---------4-----4-----|
    |-4---------2---------4-----|-----2---------4-----4-----|
    |---------------------------|---------------------------|
    |---2-2-2-2---2-2-2-2---2-2-|-2-2---2-2-2-2---2-2---2-2-|
    PM----| PM----| PM------| PM----|
    (verso 3)
    Esus4EEsus4E
    PM------| PM----| PM----| 
    |----------------|----------------------|--------------------------|
    |-10----9-(9)----|-(9)----(9)-----------|-10---------10---------9--|
    |--9----9-(9)----|-(9)----(9)-----------|--9----------9---------9--|
    |--9----9-(9)----|-(9)----(9)-----------|--9----------9---------9--|
    |--7----7-(7)----|-(7)----(7)-----------|--7----------7---------7--|
    |----------------|------------0-0-0-0-0-|----0-0-0-0----0-0-0-0----|
    EEsus4
    PM PM 
    |-----------------|------------------|----------------------|
    |-(9)------(9)----|-9-----10-(10)----|-(10)----(10)-10------|
    |-(9)------(9)----|-9------9--(9)----|--(9)-----(9)----9----|
    |-(9)------(9)----|-9------9--(9)----|--(9)-----(9)-------9-|
    |-(7)------(7)----|------------------|----------------------|
    |--------------10-|----10------------|----------------------|
    |
    |-----------------|------------------|----------------------|
    |-----------------|------------------|----------------------|
    |-----------------|------------------|----------------------|
    |-----------------|------------------|----------------------|
    |-----------------|------------------|----------------------|
    |-----------------|------------------|-----------------x\---|
    EEsus4
    PM------| PM------| 
    |-------------------------------------------------|
    |--9-----------------9----------------10----------|
    |--9-----------------9-----------------9----------|
    |--9-----------------9-----------------9----------|
    |-------------------------------------------------|
    |-------10-10-10-10-------10-10-10-10-------------|
    |
    | PM------------------|
    |-------------------------------------------------|
    |-------------------------------------------------|
    |----------------------------------13-16-13-14-16-|
    |-------------------------12-14-16----------------|
    |----------11-14-11-12-14-------------------------|
    |-10-12-14----------------------------------------|
    PM|
    |-----------------------------------------------------------|
    |-(10)------------------------------------------------------|
    |--(9)------------------------------------------------------|
    |--(9)------------------------------------------------------|
    |-----------------------------------------------------------|
    |-----------------------------------------------------0--0--|
    |
    | |------6-------|
    |-------------16-19-16-17-19-17h19p17p16p14h16-14-----------|
    |--15---17-19-------------------------------------17-15-14--|
    |-----------------------------------------------------------|
    |-----------------------------------------------------------|
    |-----------------------------------------------------------|
    |-----------------------------------------------------------|
    Esus4EEsus4E
    PM------| PM----| PM----| 
    |----------------|----------------------|--------------------------|
    |-10----9-(9)----|-(9)----(9)-----------|-10---------10---------9--|
    |--9----9-(9)----|-(9)----(9)-----------|--9----------9---------9--|
    |--9----9-(9)----|-(9)----(9)-----------|--9----------9---------9--|
    |--7----7-(7)----|-(7)----(7)-----------|--7----------7---------7--|
    |----------------|------------0-0-0-0-0-|----0-0-0-0----0-0-0-0----|
    |
    |----------------|----------------------|--------------------------|
    |----------------|----------------------|--------------------------|
    |-16-------------|----------------------|--------------------------|
    |----------------|----------------------|--------------------------|
    |----------------|----------------------|--------------------------|
    |----------------|----------------------|--------------------------|
    DDsus4
    PM PM 
    DDsus4
    PM----| PM----| 
    |------------------------|--------------||
    |-7---------7---------8--|-(8)----------||
    |-7---------7---------7--|-(7)----------||
    |-7---------7---------7--|-(7)----------||
    |------------------------|----------x\--||
    |---8-8-8-8---8-8-8-8----|--------------||
    F#m7
    PM----| PM----| PM--- 
    ||----------------------------|
    ||o---------------------------|
    ||--4---------2---------4-----|
    ||--4---------2---------4-----|
    ||o---------------------------|
    ||----2-2-2-2---2-2-2-2---2-2-|
    ---| PM----| PM| PM| PM----| PM----| PM|
    F#m7
    PM| PM----| PM| PM| PM----| PM----| PM--- 
    |---------------------------|---------------------------|
    |---------------------------|---------------------------|
    |-----4---------2-----2-----|-4---------2---------4-----|
    |-----4---------2-----2-----|-4---------2---------4-----|
    |---------------------------|---------------------------|
    |-2-2---2-2-2-2---2-2---2-2-|---2-2-2-2---2-2-2-2---2-2-|
    ---| PM----| PM| PM|
    F#m7
    PM--| PM--| PM 
    |-----------------|---------------------||-----------------|
    |-----------------|--------------------o||-----------------|
    |-----------------|---------------------||-----------------|
    |-4-2-------2-----|---------------------||-----------------|
    |-----5-4-2---5-4-|-2-0-5-4-2----------o||-2-0-5-4-2-------|
    |-----------------|------------5-(5)-0--||-----------5-4-0-|
    F#m7
    PM--| PM--| PM--| PM--| 
    |-----------------|-----------------|-----------------|------------------||
    |-----------------|-----------------|-----------------|------------------||
    |-----------------|-----------------|-----------------|------------------||
    |-4-2-------2-----|-----------------|-4-2-------2-----|------------------||
    |-----5-4-2---5-4-|-2-0-5-4-2-------|-----5-4-2---5-4-|-2-0-5-4-2--------||
    |-----------------|-----------5-4-0-|-----------------|-----------5-4-0--||
    |
    | PM--| PM--| PM--| PM--|
    |-----------------|-----------------|-----------------|------------------||
    |-----------------|-----------------|-----------------|------------------||
    |-----------------|-----------------|-----------------|------------------||
    |-7-6-4-----6-4---|-----4-----------|-7-6-4-----6-4---|-----4------------||
    |-------7-5-----7-|-5-4---7-5-4-----|-------7-5-----7-|-5-4---7-5-4------||
    |-----------------|-------------7-5-|-----------------|-------------7-5--||
    |
    | PM--| PM--|
    |-----------------|-----------------|-----------------|------------------||
    |-----------------|-----------------|-----------------|------------------||
    |-----------------|-----------------|-6-4-------4-----|------------------||
    |-----------------|-----------------|-----7-6-4---7-6-|-4---7-6-4--------||
    |-----------------|-----------------|-----------------|---7-------7-5-4--||
    |-----------------|-----------------|-----------------|------------------||