Reckoning chords & lyrics - Pillar

You play the

We are working hard to improve our content offering for your instrument.

You can still access it, but it will not be optimised or supported in our premium offering.

You now have access to over 400,000 sheets, tabs and chords!
Discover our Premium offer below:
Free
0.00€/month
  • 400k+ chords and lyrics
  • Video tutorials
  • Create playlists with your favourite songs
  • 200k+ sheet music
  • Zero ads
  • Offline sync for iOS users
Premium
9.99€/month
  • 400k+ chords and lyrics
  • Video tutorials
  • Create playlists with your favourite songs
  • 200k+ sheet music
  • Zero ads
  • Offline sync for iOS users
Reckoning by Pillar

Play to learn

ReckoningPillar

0
0
Tracks
is available only in app!
Tempo
is available only in app!
Transpose
-11 11
Loop
is available only in app!
Scroll Speed
slow fast
Danni Whitehead's avatar
Created by
Danni

Guitar Chords

    Most Popular Scores

    Fall Out BoyGrand Theft Autumn/Where Is Your Boy Jack JohnsonIt's All Understood The KooksNaïve Bob DylanLike a Rolling Stone AdeleMake You Feel My Love Jack JohnsonBanana Pancakes
    Afinção da guitarra deve ser em C
    PM- Palm mute
    Intro
    F------------------------------------------------|
    C------------------------------------------------|
    F-------------------------------------------------|
    C-------------------------------------------------|
    F------------------------------------------------|
    C------------------------------------------------|
    F------------------------------------------------|
    C--------------------3p0-0-5p0--5b---------------|
    F------------------------------------------------|
    C------------------------------------------------|
    F-------------------------------------------------|
    C-------------------------------------------------|
    F------------------------------------------------|
    C------------------------------------------------|
    F------------------------------------------------|
    C--13p0-0--12p0-0--10p0-0--3p0-0--5b-------------|
    Verso
    F------------------------------------------------|
    C--5b--5--3--5b--5--3--0--0--3--5--5b--5--3------|
    F------------------------------------------------|
    C----3-0----0--3--5--5b--5--3--------------------|
    F--------------------------------------------------|
    C----5b--5--3--0--0--3--5--5b--5--3--5b-5-5-5-5-5--|
    Pré-coro
    F--12b-12b-12b-12b--10-------|
    C----------------------------|
    Refrão
    F------------------------------------------------|
    C------------------------------------------------|
    F-------------------------------------------------|
    C-------------------------------------------------|
    F------------------------------------------------|
    C------------------------------------------------|
    F------------------------------------------------|
    C--------------------3p0-0-5p0--5b---------------|
    F------------------------------------------------|
    C------------------------------------------------|
    F-------------------------------------------------|
    C-------------------------------------------------|
    F------------------------------------------------|
    C------------------------------------------------|
    F------------------------------------------------|
    C--13p0-0--12p0-0--10p0-0--3p0-0--5b-------------|
    Verso
    Pré-Coro
    Refrão
    F------------------------------------------------|
    C------------------------------------------------|
    F-------------------------------------------------|
    C-------------------------------------------------|
    F------------------------------------------------|
    C------------------------------------------------|
    F------------------------------------------------|
    C--------------------3p0-0-5p0--5b---------------|
    F------------------------------------------------|
    C------------------------------------------------|
    F-------------------------------------------------|
    C-------------------------------------------------|
    F------------------------------------------------|
    C------------------------------------------------|
    F-------------------------------|
    C-------------------------------|
    Ponte
    F-----------------------------------------|
    C-----0-------0---------------------------|
    F-----------------------------------------|
    C-----0----------3--0---------------------|
    F-----------------------------------------|
    C-----0-------0---------------------------|
    F-----------------------------------------|
    C-----0----------3--0---------------------|
    Pré-Coro
    F------------------------------------------------|
    C------------------------------------------------|
    PM PM PM PM PM PM PM PM PM PM PM PM
    Refrão
    F------------------------------------------------|
    C------------------------------------------------|
    F-------------------------------------------------|
    C-------------------------------------------------|
    F------------------------------------------------|
    C------------------------------------------------|
    F------------------------------------------------|
    C--------------------3p0-0-5p0--5b---------------|
    F------------------------------------------------|
    C------------------------------------------------|
    F-------------------------------------------------|
    C-------------------------------------------------|
    F------------------------------------------------|
    C------------------------------------------------|
    F------------------------------------------------|
    C--13p0-0--12p0-0--10p0-0--3p0-0--5b-------------|
    Outro
    F------------------------------------------------|
    C------------------------------------------------|