Spork chords & lyrics - Nuclear Rabbit

You play the

We are working hard to improve our content offering for your instrument.

You can still access it, but it will not be optimised or supported in our premium offering.

You now have access to over 400,000 sheets, tabs and chords!
Discover our Premium offer below:
Free
0.00€/month
  • 400k+ chords and lyrics
  • Video tutorials
  • Create playlists with your favourite songs
  • 200k+ sheet music
  • Zero ads
  • Offline sync for iOS users
Premium
9.99€/month
  • 400k+ chords and lyrics
  • Video tutorials
  • Create playlists with your favourite songs
  • 200k+ sheet music
  • Zero ads
  • Offline sync for iOS users
Spork by Nuclear Rabbit

Play to learn

SporkNuclear Rabbit

0
0
Tracks
is available only in app!
Tempo
is available only in app!
Transpose
-11 11
Loop
is available only in app!
Scroll Speed
slow fast
Ninke Newton's avatar
Created by
Ninke

Guitar Chords

    Most Popular Scores

    Bob DylanDon't Think Twice, It's All Right Papa RoachHollywood Whore DisturbedThe Vengeful One Papa RoachNo Matter What EvanescenceLithium KasabianUnderdog
    G|-- --0-0-- --0-0-- --0-0-- --0-0-- --0-0-- --0-0------------------|
    D|-- ------- ------- ------- ------- ------- -----------------------|
    A|-- ------- ------- ------- ------- ------- -----------------------|
    E|-- ------- ------- ------- ------- ------- -----------------------|
    play that 6 times
    then play this chord and let it
    ring out..the chord's hard to hear,
    so here's my best guess..sounds okay
    to me.
    B
    |-9-| 
    G
    |-9-| 
    D
    |-6-| 
    A
    |-7-| 
    E
    |-0-| 
    and then..
    and then back into this:
    e|-- ------- ------- ------- ------- ------- -------8-8-8-8-8-8-8-8-|
    G|-- --0-0-- --0-0-- --0-0-- --0-0-- --0-0-- --0-0------------------|
    D|-- ------- ------- ------- ------- ------- -----------------------|
    A|-- ------- ------- ------- ------- ------- -----------------------|
    E|-- ------- ------- ------- ------- ------- -----------------------|
    after that you play this again:
    and stop on this note (vibrato
    and slide down):
    and then, this..another guess:
    e|-- ------ ------ ------ ------ ------ -----6-6-6-6-6-6-6-6-|
    B|-- ------ ------ ------ ------ ------ -----5-5-5-5-5-5-5-5-|
    E|-- ------ ------ ------ ------ ------ ---------------------|
    then let this chord ring again:
    B
    |-9-| 
    G
    |-9-| 
    D
    |-6-| 
    A
    |-7-| 
    E
    |-0-| 
    then there's some drums and then
    you play the chord again, vibrato
    and slide off:
    B|-9~\-|
    G|-9~\-|