You play the

We are working hard to improve our content offering for your instrument.

You can still access it, but it will not be optimised or supported in our premium offering.

You now have access to over 400,000 sheets, tabs and chords!
Discover our Premium offer below:
Free
0.00€/month
  • 400k+ chords and lyrics
  • Video tutorials
  • Create playlists with your favourite songs
  • 200k+ sheet music
  • Zero ads
  • Offline sync for iOS users
Premium
9.99€/month
  • 400k+ chords and lyrics
  • Video tutorials
  • Create playlists with your favourite songs
  • 200k+ sheet music
  • Zero ads
  • Offline sync for iOS users
Lappi by Nightwish

Play to learn

LappiNightwish

0
0
Tracks
is available only in app!
Tempo
is available only in app!
Transpose
-11 11
Loop
is available only in app!
Scroll Speed
slow fast
Ansime Casey's avatar
Created by
Ansiôme

Guitar Chords

    Most Popular Scores

    NightwishStargazers ScorpionsYou and I NightwishWhile Your Lips Are Still Red KISSForever KISSHeaven's on Fire ScorpionsWhite Dove
    LAPPI 1: Erämaajärvi
    (From the Album ANGELS FALL FIRST)
    Version 1.0 - January 2002
    Transcribed by Jouko Karvinen
    Revised by Vinicius Soares
    E-mail : *
    / or \ | slide (up, down)
    (7) | Extended note
    PLEASE NOTE! All the guitars are acoustic and GTR 3
    strums the chords given above the tab.
    Flute has been arranged to guitar so that
    it's in same pitch (not 8va) as the flue
    because it will be easy to create notation
    for the real flute.
    TUNING E (E,A,D,G,B,e)
    RIFF 1:
    Em
    |-3-3---2--0-|---------------|-3-3---2--0-|---------------| 
    |------------|---------------|------------|---------------|
    |------------|---------------|------------|---------------| GTR 1
    |------------|---------------|------------|---------------|
    |------------|---------------|------------|---------------|
    |------------|---------------|------------|---------------|
    | | | | |
    | | | | |
    |------------|-7-7---7-------|------------|-7-7---7-------|
    |------------|----------10-8-|------------|----------10-8-|
    |------------|---------------|------------|---------------| GTR 2
    |------------|---------------|------------|---------------|
    |------------|---------------|------------|---------------|
    |------------|---------------|------------|---------------|
    RIFF 2:
    EmDEb
    ||-3--3--2--0---------------------|--3--3--2--0---------(0)|-3-3/5-5/7-7-(7)\|| 
    ||-------------3--5--5--3--0----0-|------------------------|-----------------||
    ||.-------------------------------|------------------------|---------------.-|| GTR 1
    ||.-------------------------------|------------------------|---------------.-||
    ||--------------------------------|------------------------|-----------------||
    ||--------------------------------|------------------------|-----------------||
    || | | ||
    || | | ||
    ||-------------7--7--7------------|------------------------|-----------------||
    ||----------------------10-8---(8)|--7--8--8--7--8--10--12-|-/7--7--8--8-----||
    ||.-------------------------------|------------------------|----------------.|| GTR 2
    ||.-------------------------------|------------------------|----------------.||
    ||--------------------------------|------------------------|-----------------||
    ||--------------------------------|------------------------|-----------------||
    RIFF 3:
    Play RIFF 2
    Play RIFF 3
    RIFF 4: (Not sure about the chords)
    Kautta Erämaajärven Matkaa kulkuri yksinainen
    Kaipuu menneisyyden kiirii ilmassa huutoina kotkien
    Näkee lammella joutsenparven vapauttaan itkevan
    Ikijärveltä turvatulta käy matka vuorten taa
    RIFF FINAL 2x:
    EmCDEb
    ||-3--3--2--0---------------------|--3--3--2--0---------(0)|-3-3/5-5/7-7-(7)\|| 
    ||-------------3--5--5--3--0----0-|------------------------|-----------------||
    ||.-------------------------------|------------------------|---------------.-|| GTR 1
    ||.-------------------------------|------------------------|---------------.-||
    ||--------------------------------|------------------------|-----------------||
    ||--------------------------------|------------------------|-----------------||
    || | | ||
    || | | ||
    ||-------------7--7--7------------|------------------------|-----------------||
    ||----------------------10-8---(8)|--7--8--8--7--8--10--12-|-/7--7--8--8-----||
    ||.-------------------------------|------------------------|----------------.|| GTR 2
    ||.-------------------------------|------------------------|----------------.||
    ||--------------------------------|------------------------|-----------------||
    ||--------------------------------|------------------------|-----------------||
    ENDING