You play the

We are working hard to improve our content offering for your instrument.

You can still access it, but it will not be optimised or supported in our premium offering.

You now have access to over 400,000 sheets, tabs and chords!
Discover our Premium offer below:
Free
0.00€/month
  • 400k+ chords and lyrics
  • Video tutorials
  • Create playlists with your favourite songs
  • 200k+ sheet music
  • Zero ads
  • Offline sync for iOS users
Premium
9.99€/month
  • 400k+ chords and lyrics
  • Video tutorials
  • Create playlists with your favourite songs
  • 200k+ sheet music
  • Zero ads
  • Offline sync for iOS users
We Disintegrate by Nevermore

Play to learn

We DisintegrateNevermore

0
0
Tracks
is available only in app!
Tempo
is available only in app!
Transpose
-11 11
Loop
is available only in app!
Sheet
is available only in app!
Scroll Speed
slow fast
Enoch Frye's avatar
Created by
Enoch

Guitar Chords

    Most Popular Scores

    MegadethShe-Wolf SlayerDead Skin Mask ApocalypticaEpilogue (Relief) MegadethLast Rites / Loved to Deth ApocalypticaConclusion Judas PriestBeyond the Realms of Death
    Tuning: Bb (Bb-Eb-Ab-Db-Gb-Bb-Eb)
    Intro Verse:
    . . . . . . . . .
    . . . . . . . . .
    . . . . . . . . .
    . . . . . .
    Second guitar on Verse Riff
    Bridge riff
    . . . . . . . . . .
    . . . . . . . . . .
    . . . . . . . . . .
    . . . . . . . . . .
    Second fill guitar on Bridge riff
    Bridge 2
    Second Guitar played over bridge 2(with wahwah)
    Play intro verse
    Bridge Riff
    Play Bridge 2
    Chorus
    Eb|------------------------------------|
    Bb|------------------------------------|
    Gb|------------------------------------|
    Db|-2------------------5~----5p4------:|x2
    Ab|-2-----0--2--3-3--3-3~----3-3-------|
    Eb|-0----------------------------------|
    Bb|------------------------------------|
    | |
    Eb|-16-------16-------16-------15---------|
    Bb|----17-------17-------17-------17------|
    Gb|-------16-------16-------16-------16---|
    Db|---------------------------------------|
    Ab|---------------------------------------|
    Eb|---------------------------------------|
    Bb|---------------------------------------|
    Eb|-------------------------------|
    Bb|-------------------------------|
    Gb|-------------------------------|
    Db|-----------------6----7-------:|x2
    Ab|-4-4-4-4-4-4-4-4-4----7--------|
    Eb|-----------------4----5--------|
    Bb|-------------------------------|
    | |
    Eb|-12-------12-------12-------12---------|
    Bb|----14-------14-------14-------14------|
    Gb|-------13-------13-------14-------14---|
    Db|---------------------------------------|
    Ab|---------------------------------------|
    Eb|---------------------------------------|
    Bb|---------------------------------------|
    Repeat Chorus
    Play Intro verse with solo 1
    Solo 1
    Play Bridge
    Play Bridge 2
    Play Chorus
    Play Bridge 2 over and over again
    Evil Outro
    Add Ambient Noises( I don't tab this kinda stuff)
    Notation Legend:
    * -- Palm Mute
    b -- Bend
    br -- Bend and Release
    brp -- Bend Release and Pull Off
    pbr -- Bend Note Before Striking and Release
    ^ -- Strike Note While String Still Bent
    h -- Hammer On
    p -- Pull Off
    tr -- Trill
    x -- String Mute/Muffled
    ~ -- Vibrato
    P.H. -- Pinch or Artificial Harmonic
    N.H. -- Natural Harmonic
    / -- Slide up to Designated Note
    \ -- Slide Down to Designated Note
    T -- Tap on to Designated Note