No More Will chords & lyrics - Nevermore

You play the

We are working hard to improve our content offering for your instrument.

You can still access it, but it will not be optimised or supported in our premium offering.

You now have access to over 400,000 sheets, tabs and chords!
Discover our Premium offer below:
Free
0.00€/month
  • 400k+ chords and lyrics
  • Video tutorials
  • Create playlists with your favourite songs
  • 200k+ sheet music
  • 50% off PDF downloads
  • Zero ads
  • Offline sync for iOS users
Premium
9.99€/month
  • 400k+ chords and lyrics
  • Video tutorials
  • Create playlists with your favourite songs
  • 200k+ sheet music
  • 50% off PDF downloads
  • Zero ads
  • Offline sync for iOS users
No More Will by Nevermore

Play to learn

No More WillNevermore

0
0
Tracks
is available only in app!
Tempo
is available only in app!
Transpose
-11 11
Loop
is available only in app!
Scroll Speed
slow fast
Agit Horner's avatar
Created by
Agit

Guitar Chords

    Most Popular Scores

    Rob ZombieDragula Judas PriestYou've Got Another Thing Comin' SlayerWorld Painted Blood In FlamesCome Clarity Drowning PoolBodies Alice CooperBallad of Dwight Fry
    Gtr I (Eb Ab Db Gb Bb Eb) - 'Acoustic Guitar'
    Gtr II (Eb Ab Db Gb Bb Eb) - 'Acoustic Guitar (Lead)'
    Gtr III (Eb Ab Db Gb Bb Eb) - 'Electric Guitar w/ Distortion'
    Gtr IV (Eb Ab Db Gb Bb Eb) - 'Electric Guitar w/ Distortion'
    Gtr V (Eb Ab Db Gb Bb Eb) - 'Electric Guitar w/ Distortion, Chorus & Flange'
    Acoustic Intro
    Q=120
    Gtr I
    -------|
    ------|
    ------|
    --------||
    ||o
    ------|
    ------|
    ------|
    -------o||
    ||
    -0-----|
    0-----|
    0-----|-----0-----0---3---||
    ||------0---0---0---|-----0---0---0---|-----0---0---0---|---1---1-----1-----||
    ||o---1---1-------1-|---1---1-------0-|---1---1-------0-|-1-------1--------o||
    ||--3
    ----|-3
    ----|-1
    ----|
    --------||
    Q E E E E Q Q Q Q E E E E Q Q Q Q E E E E Q Q Q Q E E E E Q Q Q
    |3| |-3-| |-3-| |3| |-3-| |-3-| |3| |-3-| |-3-| |3| |-3-| |-3-|
    ------|
    ------|
    ------|
    ------|
    |
    ------|
    ------|
    ------|
    ------|
    |
    0-----|
    0-----|
    0-----|-----0-----0---3-|
    |-----0---0---0---|-----0---0---0---|-----0---0---0---|---1---1-----1---|
    |---1---1-------1-|---1---1-------0-|---1---1-------0-|-1-------1-------|
    |-3
    ----|-3
    ----|-1
    ----|
    ------|
    Q E E E E Q Q Q Q E E E E Q Q Q Q E E E E Q Q Q Q E E E E Q Q Q
    |3| |-3-| |-3-| |3| |-3-| |-3-| |3| |-3-| |-3-| |3| |-3-| |-3-|
    ------|
    ------|
    ------|------||
    |
    ------|
    ------|
    ------|------||
    |
    0-----|
    0-----|
    0-----|-0----||
    |-----0---0---0---|-----0---0---0---|-----0---0---0---|-1----||
    |---1---1-------1-|---1---1-------0-|---1---1-------0-|-1----||
    |-3
    ----|-3
    ----|-1
    ----|------||
    Q E E E E Q Q Q Q E E E E Q Q Q Q E E E E Q Q Q W
    |3| |-3-| |-3-| |3| |-3-| |-3-| |3| |-3-| |-3-|
    Electric Entrance
    Q Q Q Q Q Q Q Q
    ||
    ---------|
    --------|
    ||o-----/11---10--11--|------/11--10--11--|
    ||--7
    ------|--7
    -----|
    ||
    ---------|
    --------|
    ||o
    --------|
    --------|
    ||
    ---------|
    --------|
    |
    | |---3---|
    | Q Q Q H +W
    ||
    ---------|
    --------|
    ||o
    --------|
    --------|
    ||
    --0------|-(0)
    ----|
    ||----------0---------|
    --------|
    ||o---1
    ----|
    --------|
    ||--3
    ------|
    --------|
    Q Q Q Q Q Q Q Q
    |
    --------|
    --------|
    |------11---10--11--|-----11---10--11---|
    |-10
    -----|-8
    ------|
    |
    --------|
    --------|
    |
    --------|
    --------|
    |
    --------|
    --------|
    |
    | |--3---| |--3---|
    | Q Q Q H Q Q Q H
    |
    --------|
    --------|
    |
    --------|
    --------|
    |
    -0------|--------0--3-------|
    |---------0---------|---1
    ----|
    |----1
    ---|-1
    ------|
    |--1
    -----|
    --------|
    1.
    Q Q Q Q Q Q Q Q
    |
    --------|
    --------|
    |-----/11---10--11--|------/11--10--11--|
    |-7
    ------|--7
    -----|
    |
    --------|
    --------|
    |
    --------|
    --------|
    |
    --------|
    --------|
    |
    | |---3---|
    | Q Q Q H +W
    |
    --------|
    --------|
    |
    --------|
    --------|
    |
    -0------|-(0)
    ----|
    |---------0---------|
    --------|
    |---1
    ----|
    --------|
    |-3
    ------|
    --------|
    Q Q Q Q Q Q Q Q
    |
    --------|
    ---------||
    |------11---10--11S=|=13---11---10--11--o||
    |-10
    -----|
    ---------||
    |
    --------|
    ---------||
    |
    --------|
    --------o||
    |
    --------|
    ---------||
    |
    | |--3---| |--3---|
    | Q Q Q H Q Q Q H
    |
    --------|
    ---------||
    |
    --------|
    --------o||
    |
    -0------|---------0--3-------||
    |---------0---------|----1
    ----||
    |----1
    ---|--1
    -----o||
    |--1
    -----|
    ---------||
    2.
    Q Q Q Q Q Q Q Q Q Q Q Q Q Q H
    |
    --------|
    --------|
    --------|
    -----||
    |-----/11---10--11--|------/11--10--11--|------11---10--11--|-----11---10----||
    |-7
    ------|--7
    -----|-10
    -----|-8
    ---||
    |
    --------|
    --------|
    --------|
    -----||
    |
    --------|
    --------|
    --------|
    -----||
    |
    --------|
    --------|
    --------|
    -----||
    |
    | |---3---| |--3---| |--3---|
    | Q Q Q H +W Q Q Q H Q Q Q H
    |
    --------|
    --------|
    --------|
    -----||
    |
    --------|
    --------|
    --------|
    -----||
    |
    -0------|-(0)
    ----|
    -0------|--------0--3----||
    |---------0---------|
    --------|---------0---------|---1
    -||
    |---1
    ----|
    --------|----1
    ---|-1
    ---||
    |-3
    ------|
    --------|--1
    -----|
    -----||
    EEEEEEEEEEEEEEEEEEEEEEEE
    || 
    -----|
    -----|
    ||o
    ----|
    -----|
    ||
    -----|
    -----|
    ||--12-12-12-12-12-12-12-12-12-12-12-12-|-12--12-12-12-12-12-12-12-12-12-12-12-|
    ||o
    ----|
    -----|
    ||--10-10-10-10-10-10-10-10-10-10-10-10-|-10--10-10-10-10-10-10-10-10-10-10-10-|
    |
    | Q Q Q Q +H. Q
    ||
    -----|
    -----|
    ||o
    ----|
    -----|
    ||
    -----|
    -----|
    ||
    ----------0
    -----|
    -----|
    ||o
    4
    ------4-------|-(4)
    -|
    ||---3
    -|
    --------1-------|
    |--3--| |--3--| |--3--| |--3--| |--3--| |--3--| |--3--| |--3--|
    EEEEEEEEEEEEEEEEEEEEEEEE
    ----|
    -------|
    |
    ----|
    -------|
    |
    ----|
    -------|
    |-12-12-12-12-12-12-12-12-12-12-12-12-|-12-12-12-12-12-12-12-12-12-12-12-12----|
    |
    ----|
    -------|
    |-10-10-10-10-10-10-10-10-10-10-10-10-|-10-10-10-10-10-10-10-10-10-10-10-10----|
    |
    | Q Q Q Q Q Q Q Q
    |
    ----|
    -------|
    |
    ----|
    -------|
    |
    ----|
    -------0----------|
    |
    ---------0
    -----|
    ---------0
    --------|
    |
    4
    ------4-------|
    4
    ------|
    |--6
    -|--6
    ----|
    |--3--| |--3--| |--3--| |--3--| |--3---| |--3--| |--3--| |--3--|
    EEEEEEEEEEEEEEEEEEEEEEEE
    ----|
    -----|
    |
    ----|
    -----|
    |
    ----|
    -----|
    |-12-12-12-12-12-12-12-12-12-12-12-12-|-12--12-12-12-12-12-12-12-12-12-12-12-|
    |
    ----|
    -----|
    |-10-10-10-10-10-10-10-10-10-10-10-10-|-10--10-10-10-10-10-10-10-10-10-10-10-|
    |
    | Q Q Q Q +H. Q
    |
    ----|
    -----|
    |
    ----|
    -----|
    |
    ----|
    -----|
    |
    ---------0
    -----|
    -----|
    |
    3
    ------3-------|-(3)
    -|
    |--5
    -|
    --------3-------|
    |--3--| |--3--| |--3--| |--3--| |--3--| |--3--| |--3--| |--3--|
    E E E E E E E E E E E E E E E E E E E E E E E E 3x
    |
    ----|
    --------||
    |
    ----|
    -------o||
    |
    ----|
    --------||
    |-12-12-12-12-12-12-12-12-12-12-12-12-|-12-12-12-12-12-12-12-12-12-12-12-12-----||
    |
    ----|
    -------o||
    |-10-10-10-10-10-10-10-10-10-10-10-10-|-10-10-10-10-10-10-10-10-10-10-10-10-----||
    |
    | Q Q Q Q Q Q Q Q 3x
    |
    ----|
    --------||
    |
    ----|
    -------o||
    |
    ----|
    -------0
    ||
    |
    ---------0
    -----|
    ---------0
    ---------||
    |
    3
    ------3-------|
    3
    ------o||
    |--2
    -|--2
    -----||
    |--3--| |--3--| |--3--| |--3--| |--3--| |--3--| |--3--| |--3--|
    EEEEEEEEEEEEEEEEEEEEEEEE
    ----|
    ----|
    |
    ----|
    ----|
    |
    ----|
    ----|
    |-12-12-12-12-12-12-12-12-12-12-12-12-|-12-12-12-12-12-12-12-12-12-12-12-12-|
    |
    ----|
    ----|
    |-10-10-10-10-10-10-10-10-10-10-10-10-|-10-10-10-10-10-10-10-10-10-10-10-10-|
    |
    | Q Q Q Q Q Q Q Q
    |
    ----|
    ----|
    |
    ----|
    ----|
    |
    ----|
    ----|
    |
    ---------0
    -----|
    ---------0
    -----|
    |
    3
    ------3-------|
    3
    ---|
    |--5
    -|--5
    ----3-------|
    ~~~~
    |--3--| |--3--| |--3--| |--3--| |--3--| |--3--| |--3--|
    E E E E E E E E E E E E E E E E E E E E E Q
    |
    ----|
    -||
    |
    ----|
    -||
    |
    ----|
    -||
    |-12-12-12-12-12-12-12-12-12-12-12-12-|-12-12-12-12-12-12-12-12-12-{12}--||
    |
    ----|
    -||
    |-10-10-10-10-10-10-10-10-10-10-10-10-|-10-10-10-10-10-10-10-10-10-------||
    |
    | Q Q Q Q Q Q Q Q
    |
    ----|
    -||
    |
    ----|
    -||
    |
    ----|
    --------0---||
    |
    ---------0
    -----|
    ---------0
    --||
    |
    3
    ------3-------|
    3
    ||
    |--2
    -|--2
    ---------||
    PM| PM------| PM----| PM
    |-3-| |-3-| |-3-| |-3-| |-3--| |-3-| |-3--| |-3-|
    ----|
    ------|
    |
    ----|
    ------|
    |
    ----|
    ------|
    |-9-----10-9-7-9
    |-9-10---------9-10---10-9-7-|
    |-7------8-7-5-7
    |-7--8---------7--8----8-7-5-|
    |---0-0----------0-0-0-0-0-|------0-0-0-0------0--------|
    PM| PM------| PM----| PM PM
    |-3-| |-3-| |-3-| |-3-| |-3--| |-3-| |-3--| |-3--|
    ----|
    ---------|
    |
    ----|
    ---------|
    |
    ----|
    ---------|
    |-9-----10-9-7-9
    |-9-10---------9-10---9-10------|
    |-7------8-7-5-7
    |-7--8---------7--8---7--8------|
    |---0-0----------0-0-0-0-0-|------0-0-0-0------0------0----|
    PM| PM------| PM----| PM
    |-3-| |-3-| |-3-| |-3-| |-3--| |-3-| |-3--| |-3-|
    ----|
    ------|
    |
    ----|
    ------|
    |
    ----|
    ------|
    |-9-----10-9-7-9
    |-9-10---------9-10---10-9-7-|
    |-7------8-7-5-7
    |-7--8---------7--8----8-7-5-|
    |---0-0----------0-0-0-0-0-|------0-0-0-0------0--------|
    PM| PM------|
    |-3-| |-3-| |-3-| |-3-|
    E E E E E E E E E E E E q H.
    ----|
    |
    |
    ----|
    |
    |
    ----|
    |
    |-9-----10-9-7-9
    |-10--------|
    |-7------8-7-5-7
    |--8--------|
    |---0-0----------0-0-0-0-0-|
    |
    -----
    |-3-| |--3--| |-3-| |-3-| |-3--| |-3-| |-3--| |--3--|
    EEEEEEEEEEEEEEEEEEEEEEEE
    || 
    ---------|
    ----------|
    ||o
    --------|
    ----------|
    ||
    ---------|
    ----------|
    ||
    ---------|
    ----------|
    ||o
    --------|
    ----------|
    ||---7-0-0--8--7--5--7-0-0-0-0-0-|--7--8-0-0-0-0--7--8-0--8--7--5-|
    |
    | PM
    -----
    | |-3-| |--3--| |-3-| |-3-| |-3--| |-3-| |-3--| |--3--|
    | E E E E E E E E E E E E E E E E E E E E E E E E
    ||
    ---------|
    ----------|
    ||o
    --------|
    ----------|
    ||
    ---------|
    ----------|
    ||
    ---------|
    ----------|
    ||o
    --------|
    ----------|
    ||--12-0-0-13-12-10-12-0-0-0-0-0-|-12-13-0-0-0-0-12-13-0-13-12-10-|
    -----|
    |-3-| |--3--| |-3-| |-3-| |-3--| |-3-| |-3--| |-3--|
    EEEEEEEEEEEEEEEEEEEEEEEE
    --------|
    --||
    |
    --------|
    -o||
    |
    --------|
    --||
    |
    --------|
    --||
    |
    --------|
    -o||
    |--7-0-0--8--7--5--7-0-0-0-0-0-|--7--8-0-0-0-0--7--8-0--7--8-0-----||
    |
    |
    -----|
    | |-3-| |--3--| |-3-| |-3-| |-3--| |-3-| |-3--| |-3--|
    | E E E E E E E E E E E E E E E E E E E E E E E E
    |
    --------|
    --||
    |
    --------|
    -o||
    |
    --------|
    --||
    |
    --------|
    --||
    |
    --------|
    -o||
    |-12-0-0-13-12-10-12-0-0-0-0-0-|-12-13-0-0-0-0-12-13-0-12-13-0-----||
    PM| PM------| PM----| PM
    |-3-| |-3-| |-3-| |-3-| |-3--| |-3-| |-3--| |-3-|
    -----|
    ------|
    ||o
    ----|
    ------|
    ||
    -----|
    ------|
    ||--9-----10-9-7-9
    |-9-10---------9-10---10-9-7-|
    ||o-7------8-7-5-7
    |-7--8---------7--8----8-7-5-|
    ||----0-0----------0-0-0-0-0-|------0-0-0-0------0--------|
    PM| PM------| PM----| PM PM
    |-3-| |-3-| |-3-| |-3-| |-3--| |-3-| |-3--| |-3--|
    ----|
    ----------||
    |
    ----|
    ---------o||
    |
    ----|
    ----------||
    |-9-----10-9-7-9
    |-9-10---------9-10---9-10-------||
    |-7------8-7-5-7
    |-7--8---------7--8---7--8------o||
    |---0-0----------0-0-0-0-0-|------0-0-0-0------0------0-----||
    Q Q Q Q Q Q Q Q Q Q Q Q Q Q Q Q
    --|
    --|
    --|
    --|
    |
    --|
    --|
    --|
    --|
    |----------0--|----------0--|----------0--|----0-----0--|
    |-------0-----|-------0-----|-------0-----|
    --|
    |----5--------|----5--------|----5--------|
    --|
    |-3
    |-4
    |-2
    |-1-----4-----|
    Q Q Q Q Q Q Q Q Q Q Q Q Q Q Q Q
    --|
    --|
    --|
    --|
    |
    --|
    --|
    --|
    --|
    |----------0--|----------0--|----------0--|----0-----0--|
    |-------0-----|-------0-----|-------0-----|
    --|
    |----5--------|----5--------|----5--------|
    --|
    |-3
    |-4
    |-2
    |-1-----4-----|
    -----
    |-3-| |--3--| |-3-| |-3-| |-3--| |-3-| |-3--| |--3--|
    EEEEEEEEEEEEEEEEEEEEEEEE
    || 
    ---------|
    ----------|
    ||o
    --------|
    ----------|
    ||
    ---------|
    ----------|
    ||
    ---------|
    ----------|
    ||o
    --------|
    ----------|
    ||---7-0-0--8--7--5--7-0-0-0-0-0-|--7--8-0-0-0-0--7--8-0--8--7--5-|
    |
    | PM
    -----
    | |-3-| |--3--| |-3-| |-3-| |-3--| |-3-| |-3--| |--3--|
    | E E E E E E E E E E E E E E E E E E E E E E E E
    ||
    ---------|
    ----------|
    ||o
    --------|
    ----------|
    ||
    ---------|
    ----------|
    ||
    ---------|
    ----------|
    ||o
    --------|
    ----------|
    ||--12-0-0-13-12-10-12-0-0-0-0-0-|-12-13-0-0-0-0-12-13-0-13-12-10-|
    -----|
    |-3-| |--3--| |-3-| |-3-| |-3--| |-3-| |-3--| |-3--|
    EEEEEEEEEEEEEEEEEEEEEEEE
    --------|
    --||
    |
    --------|
    -o||
    |
    --------|
    --||
    |
    --------|
    --||
    |
    --------|
    -o||
    |--7-0-0--8--7--5--7-0-0-0-0-0-|--7--8-0-0-0-0--7--8-0--7--8-0-----||
    |
    |
    -----|
    | |-3-| |--3--| |-3-| |-3-| |-3--| |-3-| |-3--| |-3--|
    | E E E E E E E E E E E E E E E E E E E E E E E E
    |
    --------|
    --||
    |
    --------|
    -o||
    |
    --------|
    --||
    |
    --------|
    --||
    |
    --------|
    -o||
    |-12-0-0-13-12-10-12-0-0-0-0-0-|-12-13-0-0-0-0-12-13-0-12-13-0-----||
    |-3-| |-3-| |-3-| |-3-| |-3--| |-3-| |-3--| |-3-|
    -----|
    ------|
    ||o
    ----|
    ------|
    ||
    -----|
    ------|
    ||--9-----10-9-7-9
    |-9-10---------9-10---10-9-7-|
    ||o-7------8-7-5-7
    |-7--8---------7--8----8-7-5-|
    ||----0-0----------0-0-0-0-0-|------0-0-0-0------0--------|
    |-3-| |-3-| |-3-| |-3-| |-3--| |-3-| |-3--| |-3--|
    ----|
    ----------||
    |
    ----|
    ---------o||
    |
    ----|
    ----------||
    |-9-----10-9-7-9
    |-9-10---------9-10---9-10-------||
    |-7------8-7-5-7
    |-7--8---------7--8---7--8------o||
    |---0-0----------0-0-0-0-0-|------0-0-0-0------0------0-----||
    Q Q Q Q Q Q Q Q Q Q Q Q Q Q Q Q
    --|
    --|
    --|
    --|
    |
    --|
    --|
    --|
    --|
    |----------0--|----------0--|----------0--|----0-----0--|
    |-------0-----|-------0-----|-------0-----|
    --|
    |----5--------|----5--------|----5--------|
    --|
    |-3
    |-4
    |-2
    |-1-----4-----|
    Q Q Q Q Q Q Q Q Q Q Q Q Q Q Q Q
    --|
    --|
    --|
    --|
    |
    --|
    --|
    --|
    --|
    |----------0--|----------0--|----------0--|----0-----0--|
    |-------0-----|-------0-----|-------0-----|
    --|
    |----5--------|----5--------|----5--------|
    --|
    |-3
    |-4
    |-2
    |-1-----4-----|
    PM--| PM--| PM--| PM--| PM--| PM--|
    Q E E E Q E E E Q E E E Q Q Q Q E E E Q E E E Q E E E Q Q Q
    ---------|
    -----|
    --------|
    ------|
    ||o-8--------8--------|-8--------8-8-8-|-7--------7--------|-7--------7-7-7--|
    ||--9--------9--------|-9--------9-9-9-|-8--------8--------|-8--------8-8-8--|
    ||--9--------9--------|-9--------9-9-9-|-8--------8--------|-8--------8-8-8--|
    ||o-7--------7--------|-7--------7-7-7-|-6--------6--------|-6--------6-6-6--|
    ||-----0-0-0----0-0-0-|----0-0-0-------|----0-0-0----0-0-0-|----0-0-0--------|
    PM--| PM--| PM--| PM--| PM--|
    |-3-| |-3-| |-3-| |-3-| |-3-| |-3-| |-3-| |--3--|
    Q E E E Q E E E Q E E E Q Q Q Q E E E Q Q Q Q E E E Q Q Q
    --------|
    -----|
    -----|
    ----------||
    |-8--------8--------|-8--------8-8-8-|-7--------7-7-7-|
    ---------o||
    |-9--------9--------|-9--------9-9-9-|-8--------8-8-8-|-10--------10-10-12--||
    |-9--------9--------|-9--------9-9-9-|-8--------8-8-8-|-10--------10-10-12--||
    |-7--------7--------|-7--------7-7-7-|-6--------6-6-6-|--8---------8--8-10-o||
    |----0-0-0----0-0-0-|----0-0-0-------|----0-0-0-------|-----0-0-0
    ||
    Solo
    PM------| PM------|
    |3| |3| |-3--| |-3-| |3| |3| |-3--| |-3-|
    -|
    -|
    |
    -|
    -|
    |
    -|
    -|
    |
    -|
    -|
    |
    -|
    -|
    |-1p0-0-0-(0)-0-3-7-6-3-|-1p0-0-0-(0)-0-1-4-5-4-|
    ----|
    |3| |3| |-3--| |-3-| |-3-| |-3-| |-3-| |-3-|
    -|
    -----|
    |
    -|
    -----|
    |
    -|
    -----|
    |
    -|
    -----|
    |
    -|
    -----|
    |-1p0-0-0-(0)-0-3-7-6-3-|-0-3-4-6-4-3-0-2-3-5-3-5---|
    PM------| PM------|
    |3| |3| |-3--| |-3-| |3| |3| |-3--| |-3-|
    -|
    -|
    |
    -|
    -|
    |
    -|
    -|
    |
    -|
    -|
    |
    -|
    -|
    |-1p0-0-0-(0)-0-3-7-6-3-|-1p0-0-0-(0)-0-1-4-5-4-|
    ----|
    |3| |3| |-3--| |-3-| |-3-| |-3-| |-3-| |-3-|
    -|
    -----|
    |
    -|
    -----|
    |
    -|
    -----|
    |
    -|
    -----|
    |
    -|
    -----|
    |-1p0-0-0-(0)-0-3-7-6-3-|-0-3-4-6-4-3-0-2-3-5-3-5---|
    PM------| PM------|
    |3| |3| |-3--| |-3-| |3| |3| |-3--| |-3-|
    -|
    -|
    |
    -|
    -|
    |
    -|
    -|
    |
    -|
    -|
    |
    -|
    -|
    |-1p0-0-0-(0)-0-3-7-6-3-|-1p0-0-0-(0)-0-1-4-5-4-|
    ----|
    |3| |3| |-3--| |-3-| |-3-| |-3-| |-3-| |-3-|
    -|
    -----|
    |
    -|
    -----|
    |
    -|
    -----|
    |
    -|
    -----|
    |
    -|
    -----|
    |-1p0-0-0-(0)-0-3-7-6-3-|-0-3-4-6-4-3-0-2-3-5-3-5---|
    PM------| PM------|
    |3| |3| |-3--| |-3-| |3| |3| |-3--| |-3-|
    -|
    -|
    |
    -|
    -|
    |
    -|
    -|
    |
    -|
    -|
    |
    -|
    -|
    |-1p0-0-0-(0)-0-3-7-6-3-|-1p0-0-0-(0)-0-1-4-5-4-|
    ----|
    |3| |3| |-3--| |-3-| |-3-| |-3-| |-3-| |-3-|
    -|
    -----||
    |
    -|
    -----||
    |
    -|
    -----||
    |
    -|
    -----||
    |
    -|
    -----||
    |-1p0-0-0-(0)-0-3-7-6-3-|-0-3-4-6-4-3-0-2-3-5-3-5---||
    |-3-| |-3-| |-3-| |-3-|
    Q Q Q H Q Q Q H Q Q Q H Q Q Q H
    -|
    -|
    -|
    -|
    |
    -|
    -|
    -|
    -|
    |-------3----|-------0----|-------0----|-------0----|
    |-----4------|-----4------|-----5------|-----2------|
    |---4--------|---4--------|---5--------|---2--------|
    |-2----------|-2----------|-3----------|-0----------|
    |-3-| |-3-| |-3-| |-3-|
    Q Q Q H Q Q Q H Q Q Q H Q Q Q H
    -|
    -|
    -|
    -||
    |
    -|
    -|
    -|
    -||
    |-------3----|-------0----|-------0----|-------0----||
    |-----4------|-----4------|-----5------|-----2------||
    |---4--------|---4--------|---5--------|---2--------||
    |-2----------|-2----------|-3----------|-0----------||
    PM------| PM------|
    |3| |3| |-3--| |-3-| |3| |3| |-3--| |-3-|
    -|
    -|
    |
    -|
    -|
    |
    -|
    -|
    |
    -|
    -|
    |
    -|
    -|
    |-1p0-0-0-(0)-0-3-7-6-3-|-1p0-0-0-(0)-0-1-4-5-4-|
    ----|
    |3| |3| |-3--| |-3-| |-3-| |-3-| |-3-| |-3-|
    -|
    -----|
    |
    -|
    -----|
    |
    -|
    -----|
    |
    -|
    -----|
    |
    -|
    -----|
    |-1p0-0-0-(0)-0-3-7-6-3-|-0-3-4-6-4-3-0-2-3-5-3-5---|
    PM------| PM------|
    |3| |3| |-3--| |-3-| |3| |3| |-3--| |-3-|
    -|
    -|
    |
    -|
    -|
    |
    -|
    -|
    |
    -|
    -|
    |
    -|
    -|
    |-1p0-0-0-(0)-0-3-7-6-3-|-1p0-0-0-(0)-0-1-4-5-4-|
    ----|
    |3| |3| |-3--| |-3-| |-3-| |-3-| |-3-| |-3-|
    -|
    -----||
    |
    -|
    -----||
    |
    -|
    -----||
    |
    -|
    -----||
    |
    -|
    -----||
    |-1p0-0-0-(0)-0-3-7-6-3-|-0-3-4-6-4-3-0-2-3-5-3-5---||
    Q Q Q Q Q Q Q Q Q Q Q Q Q Q Q Q
    --|
    --|
    --|
    --|
    |
    --|
    --|
    --|
    --|
    |----------0--|----------0--|----------0--|----0-----0--|
    |-------0-----|-------0-----|-------0-----|
    --|
    |----5--------|----5--------|----5--------|
    --|
    |-3
    |-4
    |-2
    |-1-----4-----|
    Q Q Q Q Q Q Q Q Q Q Q Q Q Q Q Q
    --|
    --|
    --|
    --||
    |
    --|
    --|
    --|
    --||
    |----------0--|----------0--|----------0--|----0-----0--||
    |-------0-----|-------0-----|-------0-----|
    --||
    |----5--------|----5--------|----5--------|
    --||
    |-3
    |-4
    |-2
    |-1-----4-----||
    PM--| PM--| PM--| PM--| PM--| PM--|
    Q E E E Q E E E Q E E E Q Q Q Q E E E Q E E E Q E E E Q Q Q
    ---------|
    -----|
    --------|
    ------|
    ||o-8--------8--------|-8--------8-8-8-|-7--------7--------|-7--------7-7-7--|
    ||--9--------9--------|-9--------9-9-9-|-8--------8--------|-8--------8-8-8--|
    ||--9--------9--------|-9--------9-9-9-|-8--------8--------|-8--------8-8-8--|
    ||o-7--------7--------|-7--------7-7-7-|-6--------6--------|-6--------6-6-6--|
    ||-----0-0-0----0-0-0-|----0-0-0-------|----0-0-0----0-0-0-|----0-0-0--------|
    PM--| PM--| PM--| PM--| PM--|
    |-3-| |-3-| |-3-| |-3-| |-3-| |-3-| |-3-| |--3--|
    Q E E E Q E E E Q E E E Q Q Q Q E E E Q Q Q Q E E E Q Q Q
    --------|
    -----|
    -----|
    ----------||
    |-8--------8--------|-8--------8-8-8-|-7--------7-7-7-|
    ---------o||
    |-9--------9--------|-9--------9-9-9-|-8--------8-8-8-|-10--------10-10-12--||
    |-9--------9--------|-9--------9-9-9-|-8--------8-8-8-|-10--------10-10-12--||
    |-7--------7--------|-7--------7-7-7-|-6--------6-6-6-|--8---------8--8-10-o||
    |----0-0-0----0-0-0-|----0-0-0-------|----0-0-0-------|-----0-0-0
    ||
    EEEEEEEEEEEEEEEEEEEEEEEE
    || 
    -----|
    -----|
    ||o
    ----|
    -----|
    ||
    -----|
    -----|
    ||--12-12-12-12-12-12-12-12-12-12-12-12-|-12--12-12-12-12-12-12-12-12-12-12-12-|
    ||o
    ----|
    -----|
    ||--10-10-10-10-10-10-10-10-10-10-10-10-|-10--10-10-10-10-10-10-10-10-10-10-10-|
    |
    | Q Q Q Q +H. Q
    ||
    -----|
    -----|
    ||o
    ----|
    -----|
    ||
    -----|
    -----|
    ||
    ----------0
    -----|
    -----|
    ||o
    4
    ------4-------|-(4)
    -|
    ||---3
    -|
    --------1-------|
    |--3--| |--3--| |--3--| |--3--| |--3--| |--3--| |--3--| |--3--|
    EEEEEEEEEEEEEEEEEEEEEEEE
    ----|
    -------|
    |
    ----|
    -------|
    |
    ----|
    -------|
    |-12-12-12-12-12-12-12-12-12-12-12-12-|-12-12-12-12-12-12-12-12-12-12-12-12----|
    |
    ----|
    -------|
    |-10-10-10-10-10-10-10-10-10-10-10-10-|-10-10-10-10-10-10-10-10-10-10-10-10----|
    |
    | Q Q Q Q Q Q Q Q
    |
    ----|
    -------|
    |
    ----|
    -------|
    |
    ----|
    -------0----------|
    |
    ---------0
    -----|
    ---------0
    --------|
    |
    4
    ------4-------|
    4
    ------|
    |--6
    -|--6
    ----|
    |--3--| |--3--| |--3--| |--3--| |--3--| |--3--| |--3--| |--3--|
    EEEEEEEEEEEEEEEEEEEEEEEE
    ----|
    ----|
    |
    ----|
    ----|
    |
    ----|
    ----|
    |-12-12-12-12-12-12-12-12-12-12-12-12-|-12-12-12-12-12-12-12-12-12-12-12-12-|
    |
    ----|
    ----|
    |-10-10-10-10-10-10-10-10-10-10-10-10-|-10-10-10-10-10-10-10-10-10-10-10-10-|
    |
    | Q Q Q Q Q Q Q Q
    |
    ----|
    ----|
    |
    ----|
    ----|
    |
    ----|
    ----|
    |
    ---------0
    -----|
    ---------0
    -----|
    |
    3
    ------3-------|
    3
    ---|
    |--5
    -|--5
    ----3-------|
    |--3--| |--3--| |--3--| |--3--| |--3--| |--3--| |--3--| |--3--|
    E E E E E E E E E E E E E E E E E E E E E E E E 3x
    |
    ----|
    --------||
    |
    ----|
    -------o||
    |
    ----|
    --------||
    |-12-12-12-12-12-12-12-12-12-12-12-12-|-12-12-12-12-12-12-12-12-12-12-12-12-----||
    |
    ----|
    -------o||
    |-10-10-10-10-10-10-10-10-10-10-10-10-|-10-10-10-10-10-10-10-10-10-10-10-10-----||
    |
    | Q Q Q Q Q Q Q Q 3x
    |
    ----|
    --------||
    |
    ----|
    -------o||
    |
    ----|
    -------0
    ||
    |
    ---------0
    -----|
    ---------0
    ---------||
    |
    3
    ------3-------|
    3
    ------o||
    |--2
    -|--2
    -----||
    |--3--| |--3--| |--3--| |--3--| |--3--| |--3--| |--3--| |--3--|
    EEEEEEEEEEEEEEEEEEEEEEEE
    ----|
    ----|
    |
    ----|
    ----|
    |
    ----|
    ----|
    |-12-12-12-12-12-12-12-12-12-12-12-12-|-12-12-12-12-12-12-12-12-12-12-12-12-|
    |
    ----|
    ----|
    |-10-10-10-10-10-10-10-10-10-10-10-10-|-10-10-10-10-10-10-10-10-10-10-10-10-|
    |
    | Q Q Q Q Q Q Q Q
    |
    ----|
    ----|
    |
    ----|
    ----|
    |
    ----|
    ----|
    |
    ---------0
    -----|
    ---------0
    -----|
    |
    3
    ------3-------|
    3
    ---|
    |--5
    -|--5
    ----3-------|
    ~~~~
    |--3--| |--3--| |--3--| |--3--| |--3--| |--3--| |--3--|
    E E E E E E E E E E E E E E E E E E E E E Q
    |
    ----|
    -|
    |
    ----|
    -|
    |
    ----|
    -|
    |-12-12-12-12-12-12-12-12-12-12-12-12-|-12-12-12-12-12-12-12-12-12-{12}--|
    |
    ----|
    -|
    |-10-10-10-10-10-10-10-10-10-10-10-10-|-10-10-10-10-10-10-10-10-10-------|
    |
    | Q Q Q Q Q Q Q Q
    |
    ----|
    -|
    |
    ----|
    -|
    |
    ----|
    --------0---|
    |
    ---------0
    -----|
    ---------0
    --|
    |
    3
    ------3-------|
    3
    |
    |--2
    -|--2
    ---------|
    PM------| PM------|
    |3| |3| |-3--| |-3-| |3| |3| |-3--| |-3-|
    -|
    -|
    |
    -|
    -|
    |
    -|
    -|
    |
    -|
    -|
    |
    -|
    -|
    |-1p0-0-0-(0)-0-3-7-6-3-|-1p0-0-0-(0)-0-1-4-5-4-|
    ----|
    |3| |3| |-3--| |-3-| |-3-| |-3-| |-3-| |-3-|
    -|
    -----|
    |
    -|
    -----|
    |
    -|
    -----|
    |
    -|
    -----|
    |
    -|
    -----|
    |-1p0-0-0-(0)-0-3-7-6-3-|-0-3-4-6-4-3-0-2-3-5-3-5---|
    PM------| PM------|
    |3| |3| |-3--| |-3-| |3| |3| |-3--| |-3-|
    -|
    -|
    |
    -|
    -|
    |
    -|
    -|
    |
    -|
    -|
    |
    -|
    -|
    |-1p0-0-0-(0)-0-3-7-6-3-|-1p0-0-0-(0)-0-1-4-5-4-|
    ----|
    |3| |3| |-3--| |-3-| |-3-| |-3-| |-3-| |-3-|
    -|
    -----*|
    |
    -|
    -----*|
    |
    -|
    -----*|
    |
    -|
    -----*|
    |
    -|
    -----*|
    |-1p0-0-0-(0)-0-3-7-6-3-|-0-3-4-6-4-3-0-2-3-5-3-5---*|
    Duration Legend
    ----
    W - whole; H - half; Q - quarter; E - 8th; S - 16th; T - 32nd; X - 64th; a - acciaccatura
    + - note tied to previous; . - note dotted; .. - note double dotted
    Uncapitalized letters represent notes that are staccato (1/2 duration)
    Irregular groupings are notated above the duration line
    Duration letters will always appear directly above the note/fret number it represents the
    duration for. Duration letters with no fret number below them represent rests. Multi-
    bar rests are notated in the form Wxn, where n is the number of bars to rest for. Low
    melody durations appear below the staff
    Tablature Legend
    -----
    h - hammer-on
    p - pull-off
    b - bend
    pb - pre-bend
    r - bend release (if no number after the r, then release immediately)
    /\ - slide into or out of (from/to "nowhere")
    s - legato slide
    S - shift slide
    {n} - artificial harmonic
    n(n) - tapped harmonic
    ~ - vibrato
    tr - trill
    T - tap
    TP - trem. picking
    PM - palm muting
    \n/ - tremolo bar dip; n = amount to dip
    \n - tremolo bar down
    n/ - tremolo bar up
    /n\ - tremolo bar inverted dip
    = - hold bend; also acts as connecting device for hammers/pulls
    - volume swell (louder/softer)
    x - on rhythm slash represents muted slash
    o - on rhythm slash represents single note slash
    Misc Legend
    | - bar
    || - double bar
    ||o - repeat start
    o|| - repeat end
    *| - double bar (ending)
    : - bar (freetime)
    $ - Segno
    & - Coda