Another Song About TV chords & lyrics - MxPx

You play the

We are working hard to improve our content offering for your instrument.

You can still access it, but it will not be optimised or supported in our premium offering.

You now have access to over 400,000 sheets, tabs and chords!
Discover our Premium offer below:
Free
0.00€/month
  • 400k+ chords and lyrics
  • Video tutorials
  • Create playlists with your favourite songs
  • 200k+ sheet music
  • 50% off PDF downloads
  • Zero ads
  • Offline sync for iOS users
Premium
9.99€/month
  • 400k+ chords and lyrics
  • Video tutorials
  • Create playlists with your favourite songs
  • 200k+ sheet music
  • 50% off PDF downloads
  • Zero ads
  • Offline sync for iOS users
Another Song About TV by MxPx

Play to learn

Another Song About TVMxPx

0
0
Tracks
is available only in app!
Tempo
is available only in app!
Transpose
-11 11
Loop
is available only in app!
Scroll Speed
slow fast
Khadidjatou Sanders's avatar
Created by
Khadidjatou

Guitar Chords

    Most Popular Scores

    Maroon 5She Will Be Loved David BowieLady Grinning Soul David BowieSpace Oddity Maroon 5This Love The DoorsLight My Fire Franz FerdinandTake Me Out
    intro
    B:------------------------------------|-------------|
    G:9--7-7-7--5-5-5--9--7-7-7--10-10-10-|-9--7--------|
    E:------------------------------------|-------7777--|
    verse chorus solo thingy
    B:------------------------|-----------|-------------------------|
    G:-------9999-------------|9-9-9999---|999-------8-8--11-11--88-|
    D:-6--7--9999--6--7--9999-|9-9-9999---|999--9-9--8-8--11-11--88-|
    A:-6--7--7777--6--7--9999-|7-7-7777---|777--9-9--6-6--9--9---66-|
    E:-4--5--------4--5--7777-|-----------|-----7-7-----------------|
    another song..... t.v.sucks..