You play the

We are working hard to improve our content offering for your instrument.

You can still access it, but it will not be optimised or supported in our premium offering.

You now have access to over 400,000 sheets, tabs and chords!
Discover our Premium offer below:
Free
0.00€/month
  • 400k+ chords and lyrics
  • Video tutorials
  • Create playlists with your favourite songs
  • 200k+ sheet music
  • Zero ads
  • Offline sync for iOS users
Premium
9.99€/month
  • 400k+ chords and lyrics
  • Video tutorials
  • Create playlists with your favourite songs
  • 200k+ sheet music
  • Zero ads
  • Offline sync for iOS users
Blood of the Kings by Manowar

Play to learn

Blood of the KingsManowar

0
0
Tracks
is available only in app!
Tempo
is available only in app!
Transpose
-11 11
Loop
is available only in app!
Scroll Speed
slow fast
Pomme Garcia's avatar
Created by
Pomme

Guitar Chords

    Most Popular Scores

    Justin BieberConfident ft. Chance The Rapper Justin BieberBeauty and a Beat A Day to RememberEnd of Me Justin BieberDie in Your Arms SkilletSick Of It AtreyuLip Gloss and Black
    Gtr I (E A D G B E) - 'Rythm'
    Gtr II (E A D G B E) - 'lead'
    Intro
    Q=154
    E5D5C5B5
    4/4 
    Gtr II
    |------------||--------------------|-------------------|
    |------------||o-------------------|-------------------|
    |------------||--12-------11-------|--9-------8--------|
    |------------||--12-------12-------|-10-------9--------|
    |------------||o-------------------|-------------------|
    |------------||--------------------|-------------------|
    |
    | Gtr I
    | PM| PM| PM| PM| PM|
    |------------||--------------------|-------------------|
    |------------||o-------------------|-------------------|
    |------------||--------------------|-------------------|
    |------------||---9--------7-------|--5-------4--------|
    |------------||o--7--------5-------|--3-------2--------|
    |--------0-0-||-------0-0------0-0-|------0-0-----0-0--|
    1.,2. 3.
    E5A5G5
    3x 
    |---------------------------|----------------------------||------------------|
    |---------------------------|---------------------------o||------------------|
    |-9-------------------------|----------------------------||-5-------4--------|
    |-9-------------------------|----------------------------||-7-------5--------|
    |---------------------------|---------------------------o||------------------|
    |---------------------------|----------------------------||------------------|
    |
    | PM----| PM----| PM| PM----| PM----| PM| PM| PM|
    | 3x
    |---------------------------|----------------------------||------------------|
    |---------------------------|---------------------------o||------------------|
    |---------------------------|----------------------------||------------------|
    |-9---------9---------9-----|-9---------9---------9------||-2----------------|
    |-7---------7---------7-----|-7---------7---------7-----o||-0-------5--------|
    |---0-0-0-0---0-0-0-0---0-0-|---0-0-0-0---0-0-0-0---0-0--||-----0-0-3---0-0--|
    F5A5B5
    |--------------|-----------------| 
    |--------------|-----------------|
    |-2-------2----|-4---------------|
    |-3-------2----|-4---------------|
    |--------------|-----------------|
    |--------------|-----------------|
    |
    | PM| PM----
    |--------------|-----------------|
    |--------------|-----------------|
    |--------------|-----------------|
    |---------2----|-4-4-4-4-4-4-4-4-|
    |-3-------0----|-2-2-2-2-2-2-2-2-|
    |-1---0-0------|-----------------|
    |-------------------|--------------------------|
    |-------------------|--------------------------|
    |-(4)---------------|--------------------------|
    |-(4)---------------|--------------0-----------|
    |-------------------|--------0-2-3---3-2-0-----|
    |-------------------|-0-2--3---------------3-2-|
    |
    |-----------------|
    |-------------------|--------------------------|
    |-------------------|--------------------------|
    |-------------------|--------------------------|
    |--4--4-4-4-4-4-4-4-|-4------------------------|
    |--2--2-2-2-2-2-2-2-|-2------------------------|
    |-------------------|--------------------------|
    E5
    PM----| PM----| PM| PM----| PM----| PM| 
    |------------------||---------------------------|----------------------------|
    |------------------||---------------------------|----------------------------|
    |------------------||---------------------------|----------------------------|
    |-------------2----||-9---------9---------9-----|-9---------9---------9------|
    |-------0-2-3------||-7---------7---------7-----|-7---------7---------7------|
    |-0-2-3------------||---0-0-0-0---0-0-0-0---0-0-|---0-0-0-0---0-0-0-0---0-0--|
    |-------------------------------12-14-15-14-12----|
    |----------------------12-14-15----------------15-|
    |-------------11-12-14----------------------------|
    |----11-12-14-------------------------------------|
    |-14----------------------------------------------|
    |-------------------------------------------------|
    |
    | Gtr I
    | PM------| PM------| PM|
    |-------------------------------------------------|
    |-------------------------------------------------|
    |-------------------------------------------------|
    |--9-----------------9-----------------9----------|
    |--7-----------------7-----------------7----------|
    |--------0--0--0--0--------0--0--0--0--------0--0-|
    ~~
    |-------------------------------------------------------||
    |-14-12-------------------------------------------------||
    |-------14-12---11--------------------------------------||
    |------------------14-12---11---------------------------||
    |-----------------------------14-12-10------------------||
    |--------------------------------------12---------------||
    |
    | PM--------------| PM----| PM|
    |-------------------------------------------------------||
    |-------------------------------------------------------||
    |-------------------------------------------------------||
    |--9---------------------------9----------------9-------||
    |--7---------------------------7----------------7-------||
    |--------0----0-----0----0--------------0-0-0-0---0-0---||
    Verse 1st & 2nd
    E5Em/GB5
    E5Em/GB5
    ~~~~~~~ 
    Chorus
    E5
    ~ ~ PM----| PM----| PM| PM----| PM----| PM| 
    |-------------||---------------------------|---------------------------|
    |-------------||---------------------------|---------------------------|
    |-------------||---------------------------|---------------------------|
    |-------------||-9---------9---------9-----|-9---------9---------9-----|
    |-2--0--------||-7---------7---------7-----|-7---------7---------7-----|
    |-------3--2--||---0-0-0-0---0-0-0-0---0-0-|---0-0-0-0---0-0-0-0---0-0-|
    C5G5D5E5
    PM----| PM----| PM| 
    |-----------|-----------|---------------------------|
    |-----------|-----------|---------------------------|
    |-5---------|-7----9----|---------------------------|
    |-5----5----|-7----9----|-9---------9---------9-----|
    |-3----5----|-5----7----|-7---------7---------7-----|
    |------3----|-----------|---0-0-0-0---0-0-0-0---0-0-|
    PM----| PM----| PM|
    1.,2.
    E5
    PM----| PM----| PM| PM----| PM----| PM| 
    |---------------------------|---------------------------|
    |---------------------------|---------------------------|
    |---------------------------|---------------------------|
    |-9---------9---------9-----|-9---------9---------9-----|
    |-7---------7---------7-----|-7---------7---------7-----|
    |---0-0-0-0---0-0-0-0---0-0-|---0-0-0-0---0-0-0-0---0-0-|
    PM----| PM----| PM| PM----| PM----| PM|
    3x
    Guitar Solo
    3.
    C5G5D5E5C5G5D5
    | | | | | | | 
    / / / / / / /
    Gtr II
    / \7
    E5
    PM----| PM------| PM| PM-------| PM----| PM| 
    |----------------------------------|------------------------------------|
    |----------------------------------|------------------------------------|
    |----------------------------------|------------------------------------|
    |-9----------9--------------9------|--9-------------9-----------9-------|
    |-7----------7--------------7------|--7-------------7-----------7-------|
    |---0-0-0-0------0--0-0--0-----0-0-|-----0-0-0----0-----0-0-0-0-----0-0-|
    |
    | Gtr II
    | | / \7 | | \1.5 |
    |----------------------------------|---------5h===8p5h8p5h8p5h8p5h8p5h8-|
    |-----------15-(15)----------------|------------------------------------|
    |----------------------------------|------------------------------------|
    |----------------------------------|------------------------------------|
    |----------------------------------|------------------------------------|
    |-0-------------------0----(0)-----|-(0)--------------------------------|
    PM----| PM----| PM| PM----| PM----| PM-|
    |-----------------------------------|-----------------------------------|
    |-----------------------------------|-----------------------------------|
    |-----------------------------------|-----------------------------------|
    |------9------------9---------9-----|--9-------------9---------9--------|
    |------7------------7---------7-----|--7-------------7---------7--------|
    |-----------0-0-0-0---0-0-0-0---0-0-|--------0-0-0-0---0-0-0-0-----0--0-|
    |
    | |
    |-----17b19-------------------------|-19b21======================(19)---|
    |---x-------------------------------|-----------------------------------|
    |-x---------------------------------|-----------------------------------|
    |-----------------------------------|-----------------------------------|
    |-----------------------------------|-----------------------------------|
    |-----------------------------------|-----------------------------------|
    E
    | ||||||||||||| | | | | | | | | | | | | | | | ||| 
    o ///////////// / / / / / / / / / / / / / / / ///
    |-(19)------------------------|----------------------------------------------|
    |-----------------------------|----------------------------------------------|
    |-----------------------------|----------------------------------------------|
    |-----------------------------|----------------------------------------------|
    |-----------------------------|----------------------------------------------|
    |-----------------------------|----------------------------------------------|
    |
    | |
    | ~~~~ ~~~~
    |-----------------------------|----------------------------------------------|
    |-----------------------------|----------------------------------------------|
    |--16---------------14h16p=14s|=12--14--12--11h12p=11s9-11-9b11--(9)--(9)----|
    |-----------------------------|----------------------------------------------|
    |-----------------------------|----------------------------------------------|
    |-----------------------------|----------------------------------------------|
    B
    | ||||||| | |||||| | | | | | | | | | | | | | | | | | 
    o /////// / ////// / / / / / / / / / / / / / / / / /
    ~
    E
    | ||||||| | ||| | | | | | | | | | | | | | | | | | ||| 
    o /////// / /// / / / / / / / / / / / / / / / / / ///
    |
    ~~~~
    BACBAG
    | | | | | | | | | | | | | ||| | | | | 
    o / / / / / / / / / / / / /oo o o o o
    E
    | ||| | || | | | | | | | | | 
    o /// / // / / / / / / / / /
    | | | | | | | | | | | | | | | |
    / / / / / / / / / / / / / / / /
    B
    | ||||||| | |||||| | | | | | | | | | | | | | | | | | 
    o /////// / ////// / / / / / / / / / / / / / / / / /
    E
    | ||||||| | ||| | ||| | || | | | || | ||||||| 
    o /////// / /// / /// / // / / / // / ///////
    ~~
    BAB
    | | | | | | | | | | | | | | | | 
    o / / / / / / / / / / / / / o o
    CBAG
    | | | | 
    o o o o
    ~~~~~
    BAGF#
    | | | | 
    o o o o
    \1.5
    A
    | | | | | | | | | | | | | | | | 
    o / / / / / / / / / / / / / / /
    A
    | | | | | | | | | | | | | | | | 
    o / / / / / / / / / / / / / / /
    E
    | ||||||||||||||| 
    o ///////////////
    \0.5
    ~~~~
    EA
    | ||||||||||||||| | ||||| | | | ||||||| | ||||| | | | ||||||| 
    o /////////////// o ///// / / / /////// / ///// / / / ///////
    \1
    ~~ ~~~~~~~~~~~~~ ~~
    B
    | ||||||||||||||| | 
    o /////////////// /
    ~
    ~~
    3rd Verse
    E5
    ~~~~ 
    ||--(19)-------------------------|----------------------------|
    ||o------------------------------|----------------------------|
    ||-------------------------------|----------------------------|
    ||-------------------------------|----------------------------|
    ||o------------------------------|----------------------------|
    ||-------------------------------|----------------------------|
    |
    | Gtr I
    | PM----| PM----| PM| PM----| PM----| PM|
    ||-------------------------------|----------------------------|
    ||o------------------------------|----------------------------|
    ||-------------------------------|----------------------------|
    ||----9----------9---------9-----|-9---------9---------9------|
    ||o---7----------7---------7-----|-7---------7---------7------|
    ||-------0-0-0-0---0-0-0-0---0-0-|---0-0-0-0---0-0-0-0---0-0--|
    B5
    PM----| PM----| PM| PM----| PM----| PM| 
    |---------------------------|---------------------------|
    |---------------------------|---------------------------|
    |---------------------------|---------------------------|
    |---------------------------|---------------------------|
    |-9---------9---------9-----|-9---------9---------9-----|
    |-7-7-7-7-7-7-7-7-7-7-7-7-7-|-7-7-7-7-7-7-7-7-7-7-7-7-7-|
    E5
    PM----| PM----| PM| PM----| PM----| PM| 
    |---------------------------|---------------------------|
    |---------------------------|---------------------------|
    |---------------------------|---------------------------|
    |-9---------9---------9-----|-9---------9---------9-----|
    |-7---------7---------7-----|-7---------7---------7-----|
    |---0-0-0-0---0-0-0-0---0-0-|---0-0-0-0---0-0-0-0---0-0-|
    B5
    PM----| PM----| PM| ~ ~ ~ 
    |---------------------------|--------------||-------------||
    |---------------------------|-------------o||-------------||
    |---------------------------|--------------||-------------||
    |-4---------4---------4-----|--------------||-------------||
    |-2-2-2-2-2-2-2-2-2-2-2-0-2-|-3--2--0-----o||-2--0--------||
    |---------------------------|----------3---||-------3--2--||
    Chorus
    E5
    PM----| PM----| PM| PM----| PM----| PM| 
    |---------------------------|---------------------------|
    |---------------------------|---------------------------|
    |---------------------------|---------------------------|
    |-9---------9---------9-----|-9---------9---------9-----|
    |-7---------7---------7-----|-7---------7---------7-----|
    |---0-0-0-0---0-0-0-0---0-0-|---0-0-0-0---0-0-0-0---0-0-|
    C5G5D5E5
    PM----| PM----| PM| 
    |-----------|-----------|---------------------------|
    |-----------|-----------|---------------------------|
    |-5---------|-7----9----|---------------------------|
    |-5----5----|-7----9----|-9---------9---------9-----|
    |-3----5----|-5----7----|-7---------7---------7-----|
    |------3----|-----------|---0-0-0-0---0-0-0-0---0-0-|
    E5C5G5D5E5
    PM----| PM----| PM| 
    4x
    Outro
    E5D5C5B5
    |------------||--------------------|------------------| 
    |------------||o-------------------|------------------|
    |------------||--12-------11-------|--9-------8-------|
    |------------||--12-------12-------|-10-------9-------|
    |------------||o-------------------|------------------|
    |------------||--------------------|------------------|
    |
    | Gtr I
    | PM| PM| PM| PM| PM|
    |------------||--------------------|------------------|
    |------------||o-------------------|------------------|
    |------------||--------------------|------------------|
    |------------||---9--------7-------|--5-------4-------|
    |------------||o--7--------5-------|--3-------2-------|
    |--------0-0-||-------0-0------0-0-|------0-0-----0-0-|
    1.,2. 3.
    E5A5G5
    |---------------------------|----------------------------||------------------| 
    |---------------------------|---------------------------o||------------------|
    |-9-------------------------|----------------------------||-5-------4--------|
    |-9-------------------------|----------------------------||-7-------5--------|
    |---------------------------|---------------------------o||------------------|
    |---------------------------|----------------------------||------------------|
    |
    | PM----| PM----| PM| PM----| PM----| PM| PM| PM|
    |---------------------------|----------------------------||------------------|
    |---------------------------|---------------------------o||------------------|
    |---------------------------|----------------------------||------------------|
    |-9---------9---------9-----|-9---------9---------9------||-2----------------|
    |-7---------7---------7-----|-7---------7---------7-----o||-0-------5--------|
    |---0-0-0-0---0-0-0-0---0-0-|---0-0-0-0---0-0-0-0---0-0--||-----0-0-3---0-0--|
    H.=H Q=46
    F5A5B5
    |--------------|-----------------|-------------------| 
    |--------------|-----------------|-------------------|
    |-2-------2----|-4---------------|-(4)---------------|
    |-3-------2----|-4---------------|-(4)---------------|
    |--------------|-----------------|-------------------|
    |--------------|-----------------|-------------------|
    |
    | PM| PM--------------------------------|
    |--------------|-----------------|-------------------|
    |--------------|-----------------|-------------------|
    |--------------|-----------------|-------------------|
    |---------2----|-4-4-4-4-4-4-4-4-|--4--4-4-4-4-4-4-4-|
    |-3-------0----|-2-2-2-2-2-2-2-2-|--2--2-2-2-2-2-2-2-|
    |-1---0-0------|-----------------|-------------------|
    Q=154
    Check the solo, i think its bad :))
    Tablature Legend
    h - hammer-on
    p - pull-off
    b - bend
    pb - pre-bend
    r - bend release (if no number after the r, then release immediately)
    /\ - slide into or out of (from/to "nowhere")
    s - legato slide
    S - shift slide
    - natural harmonic
    {n} - artificial harmonic
    n(n) - tapped harmonic
    ~ - vibrato
    tr - trill
    T - tap
    TP - trem. picking
    PM - palm muting
    \n/ - tremolo bar dip; n = amount to dip
    \n - tremolo bar down
    n/ - tremolo bar up
    /n\ - tremolo bar inverted dip
    = - hold bend; also acts as connecting device for hammers/pulls
    - volume swell (louder/softer)
    x - on rhythm slash represents muted slash
    o - on rhythm slash represents single note slash
    Misc Legend
    | - bar
    || - double bar
    ||o - repeat start
    o|| - repeat end
    *| - double bar (ending)
    : - bar (freetime)
    $ - Segno
    & - Coda