You play the

We are working hard to improve our content offering for your instrument.

You can still access it, but it will not be optimised or supported in our premium offering.

You now have access to over 400,000 sheets, tabs and chords!
Discover our Premium offer below:
Free
0.00€/month
  • 400k+ chords and lyrics
  • Video tutorials
  • Create playlists with your favourite songs
  • 200k+ sheet music
  • Zero ads
  • Offline sync for iOS users
Premium
9.99€/month
  • 400k+ chords and lyrics
  • Video tutorials
  • Create playlists with your favourite songs
  • 200k+ sheet music
  • Zero ads
  • Offline sync for iOS users
Army of the Immortals by Manowar

Play to learn

Army of the ImmortalsManowar

0
0
Tracks
is available only in app!
Tempo
is available only in app!
Transpose
-11 11
Loop
is available only in app!
Scroll Speed
slow fast
Matheline Stallings's avatar
Created by
Matheline

Guitar Chords

    Most Popular Scores

    Breaking BenjaminThe Diary of Jane (acoustic) Iron MaidenWasted Years Iron MaidenPhantom of the Opera Iron MaidenAces High Deep PurpleHighway Star Bullet for My ValentineTears Don't Fall
    Riff A:
    -------
    B ------------------------------------------------------------- |
    G --2---------------------------------------------------------- |
    D --2-----------------------5---4---------------------6-6-7-9-- |
    A --0-0-0-0-0-0-0-0-0-0-0-0-3---2---3-----------------7-7-7-7-- |
    E ----------------------------------1-1-1-1-1-1-1-1-0---------- |
    Riff B:
    -------
    B ----------------------------------------------------------- |
    G --2-------------------------------------------------------- |
    D --2-----------------------5---4---------------------------- |
    A --0-0-0-0-0-0-0-0-0-0-0-0-3---2---3--------2--------------- |
    E ----------------------------------1--------0--------------- |
    Riff C:
    -------
    B ----------------------------------------------------------- |
    G ----------------------------------------------------------- |
    D ----7-------------2---------------------------2------------ |
    A ----5-5-5-5-5-5-5-0---5---3---2---------------0---5---3---- |
    E ----------------------3---1---0-0-0-0-0-0-0-0-----3---1---- |
    B ----------------------------------------------------------- |
    G ----------------------------------------------1---2---4---- |
    D ----7-------------2---------------------------------------- |
    A ----5-5-5-5-5-5-5-0---5---3---2---------------------------- |
    E ----------------------3---1---0-0-0-0-0-0-0-0-------------- |
    B -----------------------------5-3--------------------------- |
    G -----------2-4-5-4-2---2-4-5---2--------------------------- |
    D -2-----2-------------5-------2-0------5----5--------------- |
    A -0--0--0---0-2-3-2-0---0-2-3----------3----2----5---------- |
    E ---------------------3--------------------------3---------- |
    Solo 1:
    -------
    -10--10-13-15-10-13-15-10-13-15-10-13-15-10-13-15-10-15-17-15-17-13-15-13----
    --------------------------------------------------------------------------14-
    -----------------------------------------
    -----------------------------------------
    -----------------------------------------
    ---------------------------------14------
    -----------------------------------------
    -----------------------------------------
    -13-15-12-14-12-14-13-----10-8---10-8---10-8---10-8---10-8-10-8-10-8-10-8-10-
    ----------------------14-------9------9------9------9------------------------
    -----------------------------------------
    -----------------------------------------
    -----------------------------------------
    -8-10-8--8-9-----------------------------
    -------------9---------------------------
    -----------------------------------------
    -----------------------------------------
    -----------------------------------------
    Solo 2:
    -------
    -----------------------------------------
    -----------------------------------------------------------9-10-9----9-10-9--
    -7-7-7-7-7-7-7-7-7-7-7-----7-7-7-7-7-7-7-7-7---10-14-10-10--------10--------10
    -----------------------------------------
    -----------------------------------------
    ------------------------------------------------------------10-13-------10-13
    -9-10-9----9-10-9-10-9-12-10-9-10-9-10-9-10-9-12-14-12-9-12--------9-12------
    --------10-------------------------------
    -----------------------------------------
    -----------------------------------------
    -----------------------------------------
    -----------------------------------------
    -------------------------------15---13-15-12-13-12-10-5-6-5-8-6--5-5-5-5-----
    -----------------------------------------
    -----------------------------------------
    -----------------------------------------
    -----------------------------------------
    -----------------------------------------
    -----------------------------------------
    -----------------------------------------
    -----------------------------------------
    -----------------------------------------
    -----------------------------------------
    -----------------------------------------
    -----------------------------------------
    -----------------------------------------
    -----------------------------------------
    -----------------------------------------
    -----------------------------------------
    -----------------------------------------
    -----------------------------------------
    -----------------------------------------
    -----------------------------------------
    2 x A
    1 x B
    2 x A
    1 x C
    2 x A mit Solo 1
    4 x A
    1 x C
    4 x A mit Solo 2
    1 x C
    4 x A
    -------
    Battle hymns did sound the call
    You came to our side
    You heard true metal - into glory ride
    You stood beside us the false one cried.
    Your love is judgement. You gave us live.
    You wait in the rain. - You walk through the snow.
    We give you our blood. We want you to know.
    In our eyes youïre immortal -
    In our hearts youïll live forever-
    In our eyes your immortal -
    In our hearts youïll live forever.
    We have read your letters - we have heard your call.
    We were brought together - cause weïve got the balls -
    To play the loudest metal. So hard and wild and mean.
    Youïll live forever we were born from your belief.
    Metal makes us strong
    Together we belong
    Forever hereïs your song
    We want you to know.
    In our eyes youïre immortal -
    In our hearts youïll live forever-
    In our eyes your immortal -
    In our hearts youïll live forever.
    Metal makes us strong
    Together we belong
    Forever hereïs your song
    We want you to know.
    In our eyes youïre immortal -
    In our hearts youïll live forever-
    In our eyes your immortal -
    In our hearts youïll live forever.