You play the

We are working hard to improve our content offering for your instrument.

You can still access it, but it will not be optimised or supported in our premium offering.

You now have access to over 400,000 sheets, tabs and chords!
Discover our Premium offer below:
Free
0.00€/month
  • 400k+ chords and lyrics
  • Video tutorials
  • Create playlists with your favourite songs
  • 200k+ sheet music
  • Zero ads
  • Offline sync for iOS users
Premium
9.99€/month
  • 400k+ chords and lyrics
  • Video tutorials
  • Create playlists with your favourite songs
  • 200k+ sheet music
  • Zero ads
  • Offline sync for iOS users
Seele in Not by Lacrimosa

Play to learn

Seele in NotLacrimosa

0
0
Tracks
is available only in app!
Tempo
is available only in app!
Transpose
-11 11
Loop
is available only in app!
Scroll Speed
slow fast
Oussmane Dale's avatar
Created by
Oussmane

Guitar Chords

    Most Popular Scores

    Jack JohnsonBanana Pancakes DisturbedStricken EvanescenceHello Massive AttackUnfinished Sympathy EvanescenceGoing Under Kid CudiPursuit of Happiness (Nightmare) (feat. MGMT & Ratatat)
    ^ - hammer on, pull off
    b - bend string up
    r - release bend
    / - slide up
    - slide down
    ~ - vibrato
    T - tap
    x - struck string
    . - play the note and then mute it
    A-G-F-E alone
    |Guitar2: /
    |Guitar1:
    in brackets
    SOLO1 (instead
    of "7") when it is played
    for the 2nd time.
    |Guitar1: SOLO1 (instead of "7" play "5")
    |Guitar2:
    |Guitar1: SOLO1 (instead of "7" play "5")
    |Guitar2:
    PM......................................................
    |Guitar1&2:
    |------------------------------------------------|
    |------------------------------------------------|
    |------------------------------------------------|
    |------------------------------------------------|----|
    |-7----7------7----7------5----5------5----5-----| |
    |-5--5-5--555-5--5-5--555-3--3-3--333-3--3-3-333-| |FIG2
    PM ... . ... . ... . ... |
    |------------------------------------------------| |X2
    |------------------------------------------------| |
    |------------------------------------------------|----|
    |------------------------------------------------|
    |-3----3------3----3------2----2------2----2-----|
    |-1--1-1--111-1--1-1--111-0--0-0--000-0--0-0-000-|
    . ... . ... . ... . ...
    VERSE1:
    -only keyboards A-G-F-E X2
    -then:
    |-------------------------------------------|
    |-------------------------------------------|
    |-------------------------------------------|FIG3
    |-------------------------------------------|
    |--7-7.-----5-5.-----3-3.----2~---22222222--|
    |--5-5.-----3-3.-----1-1.----0~---00000000--|
    -then: FIG2 X2
    VERSE2:
    -only keyboards A-G-F-E X1
    -FIG3 X1:
    -FIG1 X1:
    -only keyboards A-G X1
    -then:
    |------------------------------------|
    |------------------------------------|
    |------------------------------------|
    |------------------------------------|
    |--33333333333333332222222222222222--|
    |--11111111111111110000000000000000--|
    PM.................................
    VERSE3:
    -FIG2 X1
    -FIG1 X1
    -FIG2 X2
    VERSE4:
    -SOLO1 X2
    END:
    -FIG2 X8