Satura chords & lyrics - Lacrimosa

You play the

We are working hard to improve our content offering for your instrument.

You can still access it, but it will not be optimised or supported in our premium offering.

You now have access to over 400,000 sheets, tabs and chords!
Discover our Premium offer below:
Free
0.00€/month
  • 400k+ chords and lyrics
  • Video tutorials
  • Create playlists with your favourite songs
  • 200k+ sheet music
  • Zero ads
  • Offline sync for iOS users
Premium
9.99€/month
  • 400k+ chords and lyrics
  • Video tutorials
  • Create playlists with your favourite songs
  • 200k+ sheet music
  • Zero ads
  • Offline sync for iOS users
Satura by Lacrimosa

Play to learn

SaturaLacrimosa

0
0
Tracks
is available only in app!
Tempo
is available only in app!
Transpose
-11 11
Loop
is available only in app!
Sheet
is available only in app!
Scroll Speed
slow fast
Boun Hart's avatar
Created by
Boun

Guitar Chords

    Most Popular Scores

    A Perfect CircleOver ToolParabola ToolWings for Marie, Part 1 ToolPushit ToolH. ToolReflection
    ^ - hammer on, pull off
    b - bend string up
    r - release bend
    / - slide up
    - slide down
    ~ - vibrato
    T - tap
    x - struck string
    . - play the note and then mute it
    VERSES:
    PM.............
    -FIG1 X1
    -FIG2 X1
    -FIG1 X1
    PM .. . .. .. .
    PM.. .. . .. .. .
    -FIG1 X1
    INTERLUDE:
    -Only bass and keyboards: G-D-A-E X2
    -Then:
    |-----|----------------------------------------------------------------|
    |-----|----------------------------------------------------------------|
    |-----|----------------------------------------------------------------|
    |-----|---------------------------------7-7---7----7---7-7---7-----7---|--|
    |-----|-5-5---5-----5---5-5---5-----5---5-5-5-5--5-5-5-5-5-5-5---5-5-5-|
    |
    |-12/-|-3-3-3-3---3-3-3-3-3-3-3---3-3-3--------------------------------|
    |FIG3
    PM . . . . . . . . .
    . . |
    |
    |------------------------------------------------------------------|
    |X2
    |------------------------------------------------------------------|
    |
    |------------------------------------------------------------------|------|
    |-2-2---2-----2---2-2---2-----2------------------------------------|
    |-0-0-0-0---0-0-0-0-0-0-0---0-0-0-2----2----2---2----2----2---2----|
    |---------------------------------0-00-0-00-0-0-0-00-0-00-0-0-0-0--|
    PM . . . . . PM .. . .. .. .
    .
    SOLO:
    GUITAR1:
    PM.. ... .... ...
    GUITAR2:
    PM PM. . .
    .
    -FIG2 X1
    -FIG1 X1
    -Only bass and keyboards: G-D-A-E X2
    -FIG3 X4
    END:
    PM .. . .. .. . .. .. . .. .. .