You play the

We are working hard to improve our content offering for your instrument.

You can still access it, but it will not be optimised or supported in our premium offering.

You now have access to over 400,000 sheets, tabs and chords!
Discover our Premium offer below:
Free
0.00€/month
  • 400k+ chords and lyrics
  • Video tutorials
  • Create playlists with your favourite songs
  • 200k+ sheet music
  • Zero ads
  • Offline sync for iOS users
Premium
9.99€/month
  • 400k+ chords and lyrics
  • Video tutorials
  • Create playlists with your favourite songs
  • 200k+ sheet music
  • Zero ads
  • Offline sync for iOS users
No Blind Eyes Can See by Lacrimosa

Play to learn

No Blind Eyes Can SeeLacrimosa

0
0
Tracks
is available only in app!
Tempo
is available only in app!
Transpose
-11 11
Loop
is available only in app!
Scroll Speed
slow fast
Enide Watts's avatar
Created by
Enide

Guitar Chords

    Most Popular Scores

    Ozzy OsbourneBark at the Moon ToolStinkfist Ozzy OsbourneShot in the Dark Tenacious DKickapoo Tenacious DFuck Her Gently Tool10,000 Days (Wings, Part 2)
    INTRO:
    CHELO
    VERSO1:
    |GUITARA1:distorsion
    |--------------------------------------------------------|
    |--------------------------------------------------------|
    |--------------------------------------------------------|
    |---7-------------7------------9-------------5-------7---|
    |---9-------------5------------7---------3-3-3---5-5-5---|------|
    |---0--------------------------0-------------------------| |
    | PM. ... |
    AQUI ENTRAN DOS GUITARRAS MAS |FIG1
    |GUITARA2:LIMPIA |
    |--------------------------------------------------------| |X2
    |--------------------------------------------------------|------|
    |--------------------------------------------5-------7---| |
    |-------5-4-5-------4-5-4--------5-4-5-----5-------7-----| |
    |-----2-----------5------------2---------3-------5-------| |
    |---0----------------------------------------------------| |
    |GUITARA3: TOCA ALGUNOS ARPEGIOS EN Em D Em C-D -----------------|
    DESPUES
    |GUITARA1
    |---------------------------------------------------------|
    |---------------------------------------------------------|
    |---------------------------------------------------------|
    |---------------------------------------------------------|
    |---9--------------7------------7------------5-------7----|-----|
    |---7--------------5------------9--------3-3-3---5-5-5----| |
    | PM. ... |
    |GUITARA2 |FIG2
    |---------------------------------------------------------| |
    |---------------------------------------------------------|-----|X2
    |---------------------------------------------------------| |
    |--------------------------------------------5--------7---| |
    |-----5-4-5-----------4-5-0-------5-4-5----5--------7-----| |
    |----------------------------------------3--------5-------| |
    |GUITARRA3: TOCA ARPEGIOS EM Bm A Bm G-A ----------------------|
    ENTONCES..
    -FIG1 X2
    -FIG2 X2
    COROS
    VERSO2:
    -TECLADOS: Gm - F#m - Gm - F#m
    -GuitarA2 ENTRA...
    |-------------------------------------------------|
    |------------------2-3----------------------------|
    |------0-0-----3-------5-3------------------------|
    |----0-------0-------------4----------------------|-----|
    |------------------------------5-4--5-4--5-4-2-4--| |
    |--3----------------------------------------------| |FIG4
    |
    |-------------------------------------------------| |X2
    |------------------2-3----------------------------| |
    |------0-0-----3-------5-3------------------------|-----|
    |----0-------0-------------4---------------0------|
    |------------------------------5-4--0-2--4---4----|
    |--3----------------------------------------------|
    INTERLUDIO:
    -ORGANO: G - F - G - F X2
    VERSO3:
    -FIG1 X2
    -FIG2 X2
    CORO:-FIG3 X2 alone
    -FIG3 X2
    VERSE4:
    - Gm - F#m - Gm - F#m
    -Guitar2 plays FIG4 X2
    VERSE5:
    -FIG1 X2
    -FIG2 X2
    OUTRO:
    -FIG3 X1 solo:
    -FIG3 X1
    solo:
    -FIG3 X3 Y FIG5 X3 soloX3:
    -FIG3 X5 FIG5 X5 :
    |-----|------------------------------------------|
    |-----|------------------------------------------|
    |-----|------------------------------------------|
    |-----|-------------------------4-4--------------|---|
    |-----|-----2------------4-4----2-2------5-----4-| |
    |-12/-|-0-0-0--0-2-2-2-2-2-2--0------3-3-3-2-2-2-| |
    PM. ......... . ... ... |X5
    |-------------------------------------| |
    |-------------------------------------| |
    |-------------------------------------|--------------|
    |------------5-5-------4-4-------9-9--|
    |-----2--3-3-3-3---2-2-2-2---7-7-7-7--|
    |-0-000-0---------0---------0---------|
    . .. .... .... ....
    solo:
    FINAL:
    |-----|
    |-----|
    |-----|
    |-----|
    |--2--|
    |--0--|