Make It End chords & lyrics - Lacrimosa

You play the

We are working hard to improve our content offering for your instrument.

You can still access it, but it will not be optimised or supported in our premium offering.

You now have access to over 400,000 sheets, tabs and chords!
Discover our Premium offer below:
Free
0.00€/month
  • 400k+ chords and lyrics
  • Video tutorials
  • Create playlists with your favourite songs
  • 200k+ sheet music
  • 50% off PDF downloads
  • Zero ads
  • Offline sync for iOS users
Premium
9.99€/month
  • 400k+ chords and lyrics
  • Video tutorials
  • Create playlists with your favourite songs
  • 200k+ sheet music
  • 50% off PDF downloads
  • Zero ads
  • Offline sync for iOS users
Make It End by Lacrimosa

Play to learn

Make It EndLacrimosa

0
0
Tracks
is available only in app!
Tempo
is available only in app!
Transpose
-11 11
Loop
is available only in app!
Scroll Speed
slow fast
Loina Bailey's avatar
Created by
Loina

Guitar Chords

    Most Popular Scores

    System of a DownToxicity Rage Against the MachineKilling in the Name System of a DownChop Suey! GorillazClint Eastwood Daft PunkSomething About Us System of a DownLonely Day
    ^ - hammer on, pull off
    b - bend string up
    r - release bend
    / - slide up
    - slide down
    ~ - vibrato
    T - tap
    x - struck string
    . - play the note and then mute it
    PM .. .. .. .. ..
    VERSE1:
    PM ..... ... ...... .. .....
    PREChorus:
    PM.....
    Chorus:
    |GUITAR1:
    |-----------------------------------------------------------------------|
    |-----------------------------------------------------------------------|
    |---------------------/12.-12/10-7-----------------------/12.-12/10-7---|
    |-7-7-7-7-7-7-7-7-7-7----------------3-3-3-3-3-3-3-3-7-7--------------0-|--|
    |-5-5-5-5-5-5-5-5-7-7-/10.-10/8--5-0-3-3-3-3-3-3-3-3-7-7-/10.-10/8--5-0-|
    |
    |-0---------------7-7--------------0-3-3-3-3-3-3-3-3-7-7----------------|
    |
    |GUITAR2: |X2
    |-----------------------------------------------------------------------|
    |
    |-----------------------------------------------------------------------|
    |
    |-----------------------------------------------------------------------|--|
    |-7-7-7-7-7-7-7-7-7-7-7-7-7-7-7-7-3-3-3-3-3-3-3-3-7-7-7-7-7-7-7-7-------|
    |-5-5-5-5-5-5-5-5-7-7-7-7-7-7-7-7-3-3-3-3-3-3-3-3-7-7-7-7-7-7-7-7-------|
    |-0---------------7-7-7-7-7-7-7-7-3-3-3-3-3-3-3-3-7-7-7-7-7-7-7-7-------|
    (here guitars match)
    |GUITAR1:
    |-----------------------------------------|
    |-----------------------------------------|
    |-14-12-14-12-14--12---14-12-14b15r14-12--|X2
    |-----------------------------------------|-----|
    |-----------------------------------------| |
    |-----------------------------------------| |
    |GUITAR2: |X2
    |-13-12-13-12-13--12---13-12-13b15r13-12--| |
    |-----------------------------------------| |
    |-----------------------------------------|-----|
    |-----------------------------------------|X2
    |-----------------------------------------|
    |-----------------------------------------|
    INTERLUDE:
    -Only keyboards and bass: D-D-A-A
    -Only Keyboards with voice: A-Ab-E-E X2
    -Then guitars:
    |----------------------------------------------------|
    |----------------------------------------------------|
    |----------------------------------------------------|
    |--------------------------2--------2-------------2--|
    |--------------------------2--------2-------------2--|
    |--/7~-----10--9--7--6~----2----2-2-2---2-3-2-3-2-2--|
    PM. .........
    ......... .......
    PM .. ..... .. ..
    |-----------------------------------------------------------------|
    |-----------------------------------------------------------------|
    |-----------------------------------------------------------------|
    |-----7-----7---7-----7-----7---7-----2-----2---2-----6-----6---6-|----|
    |-----7-----7---7-----7-----7---7-----2-----2---2-----6-----6---6-|
    |
    |-77777-77777-777-77777-77777-777-22222-22222-222-66666-66666-666-|
    |
    PM.. .... .. .... .... .. .... .... .. .... .... ..
    |X2
    |-----------------------------------------------------------------|
    |
    |-----------------------------------------------------------------|
    |
    |-----------------------------------------------------------------|----|
    |-99999-99999-999-22222-22222-222-77777-77777-777-77777-77777-777-|
    .... .... .. .... .... .. .... .... .. .... ....
    ..
    PM. ... . ...............
    OUTRO: Chorus' lyrics are repeated with the following 4 chord
    patterns (but
    diferent rhythms), ending in screams, noise and distorsion
    I II
    III
    IV
    noises and mess