Ich Bin Der Brennende Komet chords & lyrics - Lacrimosa

You play the

We are working hard to improve our content offering for your instrument.

You can still access it, but it will not be optimised or supported in our premium offering.

You now have access to over 400,000 sheets, tabs and chords!
Discover our Premium offer below:
Free
0.00€/month
  • 400k+ chords and lyrics
  • Video tutorials
  • Create playlists with your favourite songs
  • 200k+ sheet music
  • 50% off PDF downloads
  • Zero ads
  • Offline sync for iOS users
Premium
9.99€/month
  • 400k+ chords and lyrics
  • Video tutorials
  • Create playlists with your favourite songs
  • 200k+ sheet music
  • 50% off PDF downloads
  • Zero ads
  • Offline sync for iOS users
Ich Bin Der Brennende Komet by Lacrimosa

Play to learn

Ich Bin Der Brennende KometLacrimosa

0
0
Tracks
is available only in app!
Tempo
is available only in app!
Transpose
-11 11
Loop
is available only in app!
Scroll Speed
slow fast
Sherileen Burch's avatar
Created by
Sherileen

Guitar Chords

    Most Popular Scores

    Deep PurpleSail Away Sigur Rós[Njósnavélin] Iron MaidenThe Evil That Men Do Deep PurpleDemon's Eye Iron MaidenWasting Love Iron MaidenThe Red And The Black
    INTRO:
    Keyboards:
    E>nter drums and bass: A F G E X1. Then:
    Guitar:
    PM.............
    PM.............
    PM. ... . . ... ...............
    VERSE1:
    PM. ...............
    -FIG1 X1
    BRIDGE:
    PM.
    Chorus:
    |-----------------------------------------------------------|
    |-----------------------------------------------------------|
    |-----------------------------------------------------------|
    |-2--2------2--2-2-2------2--2------------------------------|----|
    |-0--0--0-0-0--0-0-0--0-0-0--0-5--5------5--5-5-5------5--5-|
    |
    |------------------------------3--3--3-3-3--3-3-3--3-3-3--3-|
    |FIG2
    PM. ... ... ...
    |
    |X2
    ... . ... ...
    THEN: FIG1 X2
    FIRST SOLO:
    |Guitar1:
    |
    PM..............................................................
    |
    |Guitar2:
    |-12---12-----------12---12-----------12---12-----------12---12---12b13r12---|
    |----15----15-13-15----15----15-13-15----15----13-15-13----15-------------15-|
    |----------------------------------------------------------------------------|
    |----------------------------------------------------------------------------|
    |----------------------------------------------------------------------------|
    |----------------------------------------------------------------------------|
    |
    |-12---12-----------12---12-----------12---12-----------12---12--12b13r12--12/-|
    |----15----15-13-15----15----15-13-15----15----13-15-13----15------------15----|
    |------------------------------------------------------------------------------|
    |------------------------------------------------------------------------------|
    |------------------------------------------------------------------------------|
    |------------------------------------------------------------------------------|
    VERSE2:
    -Only keyboards: A F G E X2
    -FIG1 X4
    -Then:
    |----------------------------------------------------------------------|
    |----------------------------------------------------------------------|
    |----------------------------------------------------------------------|
    |-2222222222222222--------------------------------------------------2--|
    |-0000000000000000333333333333333355555555555555552222222222222222--0--|
    |-----------------111111111111111133333333333333330000000000000000-----|
    PM..............................................................
    INTERLUDE:
    PM. PM. PM. PM. PM.
    PM.
    PM. PM. PM... PM... PM..
    PM..
    PM.. PM.. PM. PM.
    Chorus: FIG2 X2
    THEN:
    PM.............
    -FIG1 X1
    2nd SOLO:
    |Guitar1: FIG1 X4
    |Guitar2:
    PM...
    Here guitars match:
    |Guitar2:
    |------------------------| |--------------------------|
    |--17---15-17---15-13-15-| |-17---15-17--17b18r17-15--|
    |------------------------| |--------------------------|
    |------------------------|X3-->|--------------------------|----|
    |------------------------| |--------------------------|
    |
    |------------------------| |--------------------------|
    |
    |Guitar1: |X2
    |------------------------| |--------------------------|
    |
    |--13---12-13---12-10-12-| |-13---12-13--13b15r13-12--|
    |
    |------------------------|
    |--------------------------|----|
    |------------------------|X3-->|--------------------------|
    |------------------------| |--------------------------|
    |------------------------| |--------------------------|
    3rd SOLO:
    |Guitar2: FIG1 X2
    |Guitar1:
    Her guitars match:
    |Guitar2
    |---------------------------| |--------------------------|
    |17--171717-15-17--15-13-15-| |-17-171717-15-17b18r17-15-|
    |---------------------------| |--------------------------|
    |---------------------------|X3-->|--------------------------|----|
    |---------------------------| |--------------------------|
    |
    |---------------------------| |--------------------------|
    |
    |Guitar1 |X2
    |---------------------------| |--------------------------|
    |
    |13--131313-12-13--12-10-12-| |-13-131313-12-13b15r13-12-|
    |
    |---------------------------|
    |--------------------------|----|
    |---------------------------|X3-->|--------------------------|
    |---------------------------| |--------------------------|
    |---------------------------| |--------------------------|
    THEN:
    -Guitar2 continues playing the solo above and fades out
    -Guitar1 plays this:
    PM. PM. PM. PM. PM.
    PM.
    PM. PM.
    Chorus: it changes
    AE
     
    |-----------------------------------------------------------|
    |-----------------------------------------------------------|
    |-----------------------------------------------------------|
    |-2--2------2--2-2-2------2--2------------------------------|----|
    |-0--0--0-0-0--0-0-0--0-0-0--0-2--2------2--2-2-2------2--2-|
    |
    |------------------------------0--0--0-0-0--0-0-0--0-0-0--0-|
    |
    PM. ... ... ...
    |
    G F# |X3
    |-------------------------------------------------------------|
    |
    |-------------------------------------------------------------|
    |
    |-------------------------------------------------------------|--|
    |-------------------------------------------------------------|
    |-2--2-------2--2--5--5-----5--5----4--4-------4---4---4-4-4--|
    |-0--0--0-0--0--0--3--3-3-3-3--3----2--2--2-2--2---2---2-2-2--|
    ... ... ...
    END:
    PM............................ ...