Almost Happy chords & lyrics - K’s Choice

You play the

We are working hard to improve our content offering for your instrument.

You can still access it, but it will not be optimised or supported in our premium offering.

You now have access to over 400,000 sheets, tabs and chords!
Discover our Premium offer below:
Free
0.00€/month
  • 400k+ chords and lyrics
  • Video tutorials
  • Create playlists with your favourite songs
  • 200k+ sheet music
  • 50% off PDF downloads
  • Zero ads
  • Offline sync for iOS users
Premium
9.99€/month
  • 400k+ chords and lyrics
  • Video tutorials
  • Create playlists with your favourite songs
  • 200k+ sheet music
  • 50% off PDF downloads
  • Zero ads
  • Offline sync for iOS users
Almost Happy by K’s Choice
video thumbnail
More Videos

Play to learn

Almost HappyK’s Choice

0
0
Tracks
is available only in app!
Tempo
is available only in app!
Transpose
-11 11
Loop
is available only in app!
Scroll Speed
slow fast
Amilien Chung's avatar
Created by
Amilien

Guitar Chords

    EC#5B5
    If I__ could look beyond your face_. 
    EC#5B5
    And photograph_ your head_ in place_ 
    Would__ I find you smil__ing in a picture__
    Riff1a (picture..)
    e------------------
    B------------------
    G-1b2r1------1b2r1-
    D------------------
    A------------------
    E------------------
    Riff1b (..know what you want..)
    e---------0-------0-----
    B-------------------0---
    G-1b2r1------1h2------2-
    D-------2---------------
    A-----------------------
    E-----------------------
    Riff1c (..know so what's the point..)
    e---------0-------0-----------------0-----0----
    B-------------------0------4--4--4---4--4--4---
    G-1b2r1------1h2------2---------------2-----2--
    D-------2--------------------------------------
    A----------------------------------------------
    E----------------------------------------------
    And I don't know__ what you want_
    Cause you_ don't know_ So what__'s the point__ of ask_ing_
    {Chorus}
    E
    And you're al__most___ hap__py___ 
    C#m
    Al__most_ con__tent__ 
    A
    But your___ head_ hurts_ 
    EC#5B5
    Far too many__ ways__ to go_ 
    EC#5B5
    We learn so much_ But ne__ver know_ 
    EC#5B5A
    Where__ to look_ Or when we should stop___ looking 
    EC#5B5
    And I can love__ the whole_ of you__ 
    EC#5B5A
    The poe__try__ I stole__ from you_ and hide_ inside my stomach_ 
    {Repeat chorus}
    {Bridge}
    B5A5B5A5
    It's easy_ to get lost_ in you_ I fall_ alseep inside_ of you_ 
    B5B/BbA5A5
    I__ want to_ return__ to you__ a reason to be here_ A reason to be here___ 
    EC#5B5
    No I don't know__ what you want_ 
    EC#5B5A
    Cause you_ don't know_ So what__'s the point__ of ask_ing_ 
    {Chorus}
    E
    And you're al__most___ hap__py___ 
    C#m
    Al__most_ con__tent__ 
    A
    But your___ head_ hurts_ 
    E
    And you're al_____most______ hap____py_____ you're 
    C#m
    Al_____most_ con__tent____ 
    AEC#mA
    But your________________ head_ hurts_ 
    Riff1d
    e-----------
    B-----------
    G----1b2r1--
    D-----------
    A-----------
    E-----------