You play the

We are working hard to improve our content offering for your instrument.

You can still access it, but it will not be optimised or supported in our premium offering.

You now have access to over 400,000 sheets, tabs and chords!
Discover our Premium offer below:
Free
0.00€/month
  • 400k+ chords and lyrics
  • Video tutorials
  • Create playlists with your favourite songs
  • 200k+ sheet music
  • Zero ads
  • Offline sync for iOS users
Premium
9.99€/month
  • 400k+ chords and lyrics
  • Video tutorials
  • Create playlists with your favourite songs
  • 200k+ sheet music
  • Zero ads
  • Offline sync for iOS users
Violet by Hole

Play to learn

VioletHole

0
0
Tracks
is available only in app!
Tempo
is available only in app!
Transpose
-11 11
Loop
is available only in app!
Sheet
is available only in app!
Scroll Speed
slow fast
Renz Mcleod's avatar
Created by
Renz

Guitar Chords

    Most Popular Scores

    Led ZeppelinStairway to Heaven MetallicaNothing Else Matters Led ZeppelinRamble On MetallicaBattery The Smashing PumpkinsMellon Collie and the Infinite Sadness MetallicaThe Unforgiven III
    This is my first TAB so if there's any suggestion/corrections
    please e-mail me!
    Riff A
    E|-------------------------------------------------------------------------
    -
    B|-------------------------------------------------------------------------
    -
    G|----9---9---9-9-9-9/5--5---5---5-5-5-5-----------------------------------
    -
    D|----9---9---9-9-9-9/5--5---5---5-5-5-5----5------------------------------
    -
    A|----7---7---7-7-7-7/3--3---3---3-3-3-3----5------------------------------
    -
    E|----0---0---0-0-0-0-0--0---0---0-0-0-0----3------------------------------
    -
    Riff A
    And the sky was made of amethyst
    Riff A
    And all the stars were just like little fish
    Riff A
    You should learn when to go
    Riff A
    You should learn how to say no
    Riff A w/distortion
    E|-------------------------------------------------------------------------
    -
    B|-------------------------------------------------------------------------
    -
    G|-------------------------------------------------------------------------
    -
    D|-----2---2---2-2-2-2-----3---3---3-3-3-3-----5---------------------------
    -
    A|-----2---2---2-2-2-2-----3---3---3-3-3-3-----5---------------------------
    -
    E|-----0---0---0-0-0-0-----1---1---1-1-1-1-----3---------------------------
    -
    Riff B
    Might last a day, yeah
    Riff B
    Mine is forever
    Riff B
    Might last a day, yeah
    Riff C
    Riff C
    Mine is forever
    Riff D
    E|-------------------------------------------------------------------------
    --
    B|-------------------------------------------------------------------------
    --
    G|-----9---9---9-9-9-9----5---5--5-5-5-5--7--7--7-7-7-7--------------------
    --
    D|-----9---9---9-9-9-9----5---5--5-5-5-5--7--7--7-7-7-7---7-7--7-7-7-7-----
    --
    A|-----7---7---7-7-7-7----3---3--3-3-3-3--5--5--5-5-5-5---7-7--7-7-7-7-----
    --
    E|-----0---0---0-0-0-0----0---0--0-0-0-0--0--0--0-0-0-0---5-5--5-5-5-5-----
    --
    Riff D
    Well they get what they want, and they never want it again
    Riff D
    Well they get what they want, and they never want it again
    Riff D w/distortion
    Go on, take everything, take everything, I want you to
    Riff D
    Go on, take everything, take everything, I want you to
    Riff A
    And the sky was all violet
    Riff A
    I want to give my violet more violence
    Riff A
    And I'm the one with no soul
    Riff A
    One above and one below
    Riff B w/distortion
    Might last a day, yeah
    Riff C
    Mine is forever
    Bridge (2.42) Repeat
    VIOLET
    Verse 1:
    (E C G)
    And the sky was made of amethyst
    And all the stars were just like little fish
    You should learn when to go
    You should learn how to say no
    Verse 2:
    E5F5G5
     
    Verse 3:
    D5 A | 2x
    I'll never want it again |
    Chorus:
    E5 C5 |
    Go on, take everything |
    D5 A5 | 2x
    Take everything I want you to |
    (Verse 1)
    And the sky was all violet
    Wanna get it more violent, more violence
    And I'm the one with no soul
    One above and one below
    (Verse 2 with same lyrics)
    (Verse 3 with same lyrics)
    (Chorus)
    (Chords from the chorus)
    I told you from the start
    Just how it would end
    When I get what I want
    I'll never want it again
    (Chorus)