Freedom Call chords & lyrics - Freedom Call

You play the

We are working hard to improve our content offering for your instrument.

You can still access it, but it will not be optimised or supported in our premium offering.

You now have access to over 400,000 sheets, tabs and chords!
Discover our Premium offer below:
Free
0.00€/month
  • 400k+ chords and lyrics
  • Video tutorials
  • Create playlists with your favourite songs
  • 200k+ sheet music
  • Zero ads
  • Offline sync for iOS users
Premium
9.99€/month
  • 400k+ chords and lyrics
  • Video tutorials
  • Create playlists with your favourite songs
  • 200k+ sheet music
  • Zero ads
  • Offline sync for iOS users
Freedom Call by Freedom Call

Play to learn

Freedom CallFreedom Call

0
0
Tracks
is available only in app!
Tempo
is available only in app!
Transpose
-11 11
Loop
is available only in app!
Sheet
is available only in app!
Scroll Speed
slow fast
Sebastijan Goldstein's avatar
Created by
Sebastijan

Guitar Chords

    Most Popular Scores

    Justin BieberCommon Denominator HIMThe Funeral of Hearts A Day to RememberYou Had Me at Hello Killswitch EngageHate By Design A Day to RememberIf It Means a Lot to You Justin BieberDown to Earth
    {RIFF A}
    |-----------------|-----------------|-----------------|-----------------|
    |-----------------|-----------------|-----------------|-----------------|
    |7-------9-10--9--|12--109-10---7---|10---9-7-5----7-9|7-------9-10--9--|
    |-0-0-0-0----00-00|--00------00---00|--00-------0-0---|-0-0-0-0----00-00|
    |-----------------|-----------------|-----------------|-----------------|
    |-----------------|-----------------|-----------------|-----------------|
    | pm..... pm pm pm pm pm pm pm. pm..... pm pm|
    | |
    |-----------------|-----------------|-----------------|-----------------|
    |-----------------|-----------------|-----------------|-----------------|
    |-----------------|-----------------|-----------------|-----------------|
    |-----------------|-----------------|-----------------|-----------------|
    |-----------------|-----------------|-----------------|-----------------|
    |-----------------|-----------------|-----------------|-----------------|
    | |
    | |
    |-----------------|-----------------|-----------------|-----------------|
    |-----------------|-----------------|-----------------|-----------------|
    |-----------------|-----------------|-----------------|-----------------|
    |-----------------|-----------------|-----------------|-----------------|
    (cont)
    |-----------------|-----------------|-----------------|-----------------|
    |-----------------|-----------------|-----------------|-----------------|
    |-7--109-10---7---|12--109-10---7---|910--9-7-5----7-9|7-------9-10--9--|
    |--00------00---00|--00------00---00|--00-------0-0---|-0-0-0-0----00-00|
    |-----------------|-----------------|-----------------|-----------------|
    |-----------------|-----------------|-----------------|-----------------|
    | pm pm pm pm pm pm pm. pm..... pm pm|
    | |
    |-----------------|-----------------|-----------------|-----------------|
    |-----------------|-----------------|-----------------|-----------------|
    |-----------------|-----------------|-----------------|-----------------|
    |-----------------|-----------------|-----------------|-----------------|
    |-----------------|-----------------|-----------------|-----------------|
    |-----------------|-----------------|-----------------|-----------------|
    | |
    |-----------------|-----------------|-----------------|-----------------|
    |-----------------|-----------------|-----------------|-----------------|
    |-----------------|-----------------|-----------------|-----------------|
    |-----------------|-----------------|-----------------|-----------------|
    (cont)
    |-----------------|-----------------|-----------------|-----------------|
    |-----------------|-----------------|-----------------|-----------------|
    |7-------9-10--9--|12--109-10---7---|10---9-7-5----7-9|7-------9-10--9--|
    |-0-0-0-0----00-00|--00------00---00|--00-------0-0---|-0-0-0-0----00-00|
    |-----------------|-----------------|-----------------|-----------------|
    |-----------------|-----------------|-----------------|-----------------|
    | pm..... pm pm pm pm pm pm pm. pm..... pm pm|
    | |
    |-----------------|-----------------|-----------------|-----------------|
    |-----------------|-----------------|-----------------|-----------------|
    |7----------------|-----------------|10-------12------|-----------------|
    |7----------------|-----------------|10-------12------|-5---------------|
    |5----------------|-----------------|8--------10------|-5---------------|
    |-----------------|-----------------|-----------------|-3---------------|
    | |
    |-----------------|-----------------|-----------------|-----------------|
    |-----------------|-----------------|3---------5------|-----------------|
    |5----------------|-----------------|-----------------|-----------------|
    |-----------------|-----------------|-----------------|-3---------------|
    (cont)
    |-----------------|-----------------|-----------------|-----------------|
    |-----------------|-----------------|-----------------|-----------------|
    |7-------9-10--7--|12--109-10---7---|910--9-7-5----7-9|-----------------|
    |-0-0-0-0----00-00|--00------00---00|--00-------0-0---|-----------------|
    |-----------------|-----------------|-----------------|-----------------|
    |-----------------|-----------------|-----------------|-----------------|
    | pm..... pm pm pm pm pm pm. pm. |
    | |
    |-----------------|-----------------|-----------------|-----------------|
    |-----------------|-----------------|-----------------|-----------------|
    |-7--------10-----|-12--------------|-10------12------|-----------------|
    |-7--------10-----|-12------5-------|-10------12------|5----------------|
    |-5---------8-----|-10------5-------|--8------10------|5----------------|
    |-----------------|---------3-------|-----------------|3----------------|
    | |
    |-----------------|-----------------|-----------------|-----------------|
    |-----------3-----|--5--------------|--3-------5------|-----------------|
    |-5---------------|-----------------|-----------------|-----------------|
    |-----------------|---------3-------|-----------------|3----------------|
    {END RIFF A}
    This part is played by a piano. I have not piano so i play it like this:
    {RIFF B}
    |-----------------|-----------------|-----------------|-----------------|
    |-----------------|-----------------|-----------------|-----------------|
    |-7-7-7-7-7-7-7-7-|-7-7-7-7-7-7-7-7-|-7-7-7-7-7-7-7-7-|7-7-7-7-7-7-7-7--|
    |--7-7-7-7-7-7-7-7|--7-7-7-7-7-7-7-7|--7-7-7-7-7-7-7-7|-7-7-7-7-7-7-7-7-|
    |-----------------|-----------------|-----------------|-----------------|
    |-----------------|-----------------|-----------------|-----------------|
    | |
    | |
    |-----------------|-----------------|-----------------|-----------------|
    |-----------------|-----------------|-----------------|-----------------|
    |-7---------------|-----------------|-----------------|-----------------|
    |-7---------------|-----------------|-----------------|-----------------|
    |-5---------------|-----------------|-----------------|-----------------|
    |-----------------|-----------------|-----------------|-----------------|
    | |
    |-----------------|-----------------|-----------------|-----------------|
    |-----------------|-----------------|-----------------|-----------------|
    |-5---------------|-----------------|-3--------1------|-----------------|
    |-----------------|-----------------|-----------------|-----------------|
    {END RIFF B}
    Play RIFF B once again
    {Riff C}
    |-----------------|-----------------|-----------------|-----------------|
    |-----------------|-----------------|-----------------|-----------------|
    |-7------10-------|-5---------------|-10-------5------|-----------------|
    |-7------10-------|-5-------7-------|-10-------5------|-5---------------|
    |-5-------8-------|-3-------7-------|--8-------3------|-5---------------|
    |-----------------|---------5-------|-----------------|-3---------------|
    | |
    |-----------------|-----------------|-----------------|-----------------|
    |-----------------|-----------------|-----------------|-----------------|
    |-----------------|-----------------|-----------------|-----------------|
    |-----------------|-----------------|-----------------|-----------------|
    |-----------------|-----------------|-----------------|-----------------|
    |-----------------|-----------------|-----------------|-----------------|
    | |
    |-----------------|-----------------|-----------------|-----------------|
    |----------3------|-----------------|-3---------------|-----------------|
    |-5---------------|-3---------------|----------3------|-----------------|
    |-----------------|---------5-------|-----------------|-3---------------|
    (cont)
    |-----------------|-----------------|-----------------|-----------------|
    |-----------------|-----------------|-----------------|-----------------|
    |-7------10-------|-5---------------|-10------12--12--|-----------------|
    |-7------10-------|-5-------7-------|-10------12--12--|-5---------------|
    |-5-------8-------|-3-------7-------|--8------10--10--|-5---------------|
    |-----------------|---------5-------|-----------------|-3---------------|
    | |
    |-----------------|-----------------|-----------------|-----------------|
    |-----------------|-----------------|-----------------|-----------------|
    |-----------------|-----------------|-----------------|-----------------|
    |-----------------|-----------------|-----------------|-----------------|
    |-----------------|-----------------|-----------------|-----------------|
    |-----------------|-----------------|-----------------|-----------------|
    | |
    |-----------------|-----------------|-----------------|-----------------|
    |----------3------|-----------------|-3--------5--5---|-----------------|
    |-5---------------|-3---------------|-----------------|-----------------|
    |-----------------|---------5-------|-----------------|-3---------------|
    {END RIFF C}
    {RIFF D}
    |-----------------|-----------------|-----------------|-----------------|
    |-----------------|-----------------|-----------------|-----------------|
    |7--------------5-|-7---------------|7--------------5-|-7------3----5---|
    |7--------------5-|-7-----7-5-------|7--------------5-|-7------3----5---|
    |5--5--5--5--5--3-|-5-5-5-----8-7---|5--5--5--5--5--3-|-5------1----3---|
    |-----------------|-----------------|-----------------|-----------------|
    | pm........ pm. pm........ |
    | |
    |-----------------|-----------------|-----------------|-----------------|
    |-----------------|-----------------|-----------------|-----------------|
    |-----------------|-----------------|-----------------|-----------------|
    |-----------------|-----------------|-----------------|-----------------|
    |-----------------|-----------------|-----------------|-----------------|
    |-----------------|-----------------|-----------------|-----------------|
    | |
    |-----------------|-----------------|-----------------|-----------------|
    |-----------------|-----------------|-----------------|-----------------|
    |5--------------3-|-5---------------|5--------------3-|-5------1---3----|
    |-----------------|-----------------|-----------------|-----------------|
    (cont)
    |-----------------|-----------------|-----------------|-----------------|
    |-----------------|-----------------|-----------------|-----------------|
    |7--------------5-|-7---------------|7----------------|-3------5--------|
    |7--------------5-|-7-----7-5-------|7----------------|-3------5--------|
    |5--5--5--5--5--3-|-5-5-5-----8-7---|5--5--5--5--5----|-1------3--------|
    |-----------------|-----------------|-----------------|-----------------|
    | pm........ pm. pm........ |
    | |
    |-----------------|-----------------|-----------------|-----------------|
    |-----------------|-----------------|-----------------|-----------------|
    |-----------------|-----------------|-----------------|-----------------|
    |-----------------|-----------------|-----------------|-----------------|
    |-----------------|-----------------|-----------------|-----------------|
    |-----------------|-----------------|-----------------|-----------------|
    | |
    |-----------------|-----------------|-----------------|-----------------|
    |-----------------|-----------------|-----------------|-----------------|
    |5--------------3-|-5---------------|5----------------|-1------3--------|
    |-----------------|-----------------|-----------------|-----------------|
    {END RIFF D}
    Play RIFF D once again
    {RIFF F}
    |-----------------|-----------------|-----------------|-----------------|
    |-----------------|-----------------|-----------------|-----------------|
    |-----------------|-----------------|-----------------|-----------------|
    |-----------------|-----------------|-----------------|-----------------|
    |-----------------|-3-3-3-3-3-3-3-3-|-8-8-8-8-8-8-8-8-|-----------------|
    |-1-1-1-1-1-1-1-1-|-----------------|-----------------|-5-5-5-5-5-5-5-5-|
    | pm................................................................... |
    | |
    |-----------------|-----------------|-----------------|-----------------|
    |-----------------|-----------------|-----------------|-----------------|
    |-----------------|-----------------|-----------------|-----------------|
    |-----------------|-----------------|-----------------|-----------------|
    |-----------------|-3-3-3-3-3-3-3-3-|-8-8-8-8-8-8-8-8-|-----------------|
    |-1-1-1-1-1-1-1-1-|-----------------|-----------------|-5-5-5-5-5-5-5-5-|
    | pm................................................................... |
    | |
    |-----------------|-----------------|-----------------|-----------------|
    |-----------------|-----------------|-----------------|-----------------|
    |-----------------|-3-3-3-3-3-3-3-3-|-8-8-8-8-8-8-8-8-|-----------------|
    |-1-1-1-1-1-1-1-1-|-----------------|-----------------|-5-5-5-5-5-5-5-5-|
    {END RIFF F}
    Play RIFF F once again
    Play RIFF D once
    Play RIFF F twice
    {RIFF G}
    |-----------------|-----------------|-----------------|-----------------|
    |-----------------|-10--------------|-----------------|-10--------------|
    |-7---9--10---12--|-9---5---7--7----|-7---9--10---12--|-9---5---7--7----|
    |-7---9--10---12--|-7---5---7--7----|-7---9--10---12--|-7---5---7--7----|
    |-5---7---8---10--|-----3---5--5----|-5---7---8---10--|-----3---5--5----|
    |-----------------|-----------------|-----------------|-----------------|
    | |
    |-----------------|-----------------|-----------------|-----------------|
    |-----------------|-10--------------|-----------------|-10--------------|
    |-7---9--10---12--|-9---5---7--7----|-7---9--10---12--|-9---5---7--7----|
    |-7---9--10---12--|-7---5---7--7----|-7---9--10---12--|-7---5---7--7----|
    |-5---7---8---10--|-----3---5--5----|-5---7---8---10--|-----3---5--5----|
    |-----------------|-----------------|-----------------|-----------------|
    | |
    |-----------------|-----------------|-----------------|-----------------|
    |---------3----5--|-7---------------|---------3----5--|-7---------------|
    |-5---7-----------|-----3---5--5----|-5---7-----------|-----3---5--5----|
    |-----------------|-----------------|-----------------|-----------------|
    (cont)
    |-----------------|-----------------|-----------------|-----------------|
    |-----------------|-----------------|-----------------|-----------------|
    |-----------------|-----------------|-----------------|----------7---7--|
    |-5-------------7-|-8-------------8-|-7---------------|----------7---7--|
    |-5-------------7-|-8-------------8-|-7---------------|----------5---5--|
    |-3-------------5-|-6-------------6-|-5---------------|-----------------|
    | pm... |
    | |
    |-----------------|-----------------|-----------------|-----------------|
    |-----------------|-----------------|-----------------|-----------------|
    |-----------------|-----------------|-----------------|-----------------|
    |-5-------------7-|-8-------------8-|-7---------------|-----------------|
    |-5-------------7-|-8-------------8-|-7---------------|-----------------|
    |-3-------------5-|-6-------------6-|-5---------------|-----------------|
    | |
    |-----------------|-----------------|-----------------|-----------------|
    |-----------------|-----------------|-----------------|-----------------|
    |-----------------|-----------------|-----------------|-----------------|
    |-3-3-3-3-3-3-3-3-|-6-6-6-6-6-6-6-6-|-5-5-5-5-5-5-5-5-|-5-5-5-5-5-5-5-5-|
    {END RIFF G}
    {RIFF H}
    Trumpet arranged for guitar
    |-----------------|-----------------|-----------------|-----------------|
    |-----------------|-17--15--17~~----|-----------------|-----------------|
    |-9---------------|-----------------|-----------------|--14-12-14-12-11-|
    |-9---------------|-----------------|-5---------------|-----------------|
    |-7---------------|-----------------|-5---------------|-----------------|
    |-----------------|-----------------|-3---------------|-----------------|
    | |
    |-----------------|-----------------|-----------------|-----------------|
    |-----------------|-----------------|-----------------|-----------------|
    |-9---------------|-5---------------|-----------------|-7---------------|
    |-9---------------|-5---------------|-5---------------|-7---------------|
    |-7---------------|-3---------------|-5---------------|-5---------------|
    |-----------------|-----------------|-3---------------|-----------------|
    | |
    |-----------------|-----------------|-----------------|-----------------|
    |-----------------|-----------------|-----------------|-----------------|
    |-7-7-7-7-7-7-7-7-|-3-3-3-3-3-3-3-3-|-----------------|-5-5-5-5-5-5-5-5-|
    |-----------------|-----------------|-3-3-3-3-3-3-3-3-|-----------------|
    (cont)
    |-----------------|-----------------|-----------------|-----------------|
    |-----------------|-----------------|-----------------|-----------------|
    |-12~~~-----------|-5---------------|-----------------|--14-12-14-12-11-|
    |-----------------|-5---------------|-5---------------|-----------------|
    |-----------------|-3---------------|-5---------------|-----------------|
    |-----------------|-----------------|-3---------------|-----------------|
    | |
    |-----------------|-----------------|-----------------|-----------------|
    |-----------------|-----------------|-----------------|-----------------|
    |-9---------------|-5---------------|-----------------|-7---------------|
    |-9---------------|-5---------------|-5---------------|-7---------------|
    |-7---------------|-3---------------|-5---------------|-5---------------|
    |-----------------|-----------------|-3---------------|-----------------|
    | |
    |-----------------|-----------------|-----------------|-----------------|
    |-----------------|-----------------|-----------------|-----------------|
    |-7-7-7-7-7-7-7-7-|-3-3-3-3-3-3-3-3-|-----------------|-5-5-5-5-5-5-5-5-|
    |-----------------|-----------------|-3-3-3-3-3-3-3-3-|-----------------|
    (cont)
    |-----------------|-----------------|-----------------|-----------------|
    |-----------------|-17--15--17~~----|-----------------|-----------------|
    |-12~~~-----------|-----------------|-----------------|--14-12-14-12-11-|
    |-----------------|-----------------|-5---------------|-----------------|
    |-----------------|-----------------|-5---------------|-----------------|
    |-----------------|-----------------|-3---------------|-----------------|
    | |
    |-----------------|-----------------|-----------------|-----------------|
    |-----------------|-----------------|-----------------|-----------------|
    |-9---------------|-5---------------|-----------------|-7---------------|
    |-9---------------|-5---------------|-5---------------|-7---------------|
    |-7---------------|-3---------------|-5---------------|-5---------------|
    |-----------------|-----------------|-3---------------|-----------------|
    | |
    | |
    |-----------------|-----------------|-----------------|-----------------|
    |-----------------|-----------------|-----------------|-----------------|
    |-7-7-7-7-7-7-7-7-|-3-3-3-3-3-3-3-3-|-----------------|-5-5-5-5-5-5-5-5-|
    |-----------------|-----------------|-3-3-3-3-3-3-3-3-|-----------------|
    (cont)
    |-----------------|-----------------|-----------------|-----------------|
    |-----------------|-----------------|-----------------|-----------------|
    |-12~~~-----------|-5---------------|-----------------|--14-12-14-12-11-|
    |-----------------|-5---------------|-5---------------|-----------------|
    |-----------------|-3---------------|-5---------------|-----------------|
    |-----------------|-----------------|-3---------------|-----------------|
    | |
    |-----------------|-----------------|-----------------|-----------------|
    |-----------------|-----------------|-----------------|-----------------|
    |-9---------------|-5---------------|-----------------|-7---------------|
    |-9---------------|-5---------------|-5---------------|-7---------------|
    |-7---------------|-3---------------|-5---------------|-5---------------|
    |-----------------|-----------------|-3---------------|-----------------|
    | |
    |-----------------|-----------------|-----------------|-----------------|
    |-----------------|-----------------|-----------------|-----------------|
    |-7-7-7-7-7-7-7-7-|-3-3-3-3-3-3-3-3-|-----------------|-5-5-5-5-5-5-5-5-|
    |-----------------|-----------------|-3-3-3-3-3-3-3-3-|-----------------|
    |-----------------|-----------------|-----------------|--15---15--------|
    |-----------------|-13---13---------|--17--17---------|-----------------|
    |-12-12-----------|-----------------|-----------------|-----------------|
    |-----------------|-----------------|-----------------|-----------------|
    |-----------------|-----------------|-----------------|-----------------|
    |-----------------|-----------------|-----------------|-----------------|
    | |
    |-----------------|-----------------|-----------------|-----------------|
    |-----------------|-----------------|-----------------|-----------------|
    |-5---------------|-----------------|-----------------|-----------------|
    |-5---------------|-----------------|-----------------|-----------------|
    |-3---------------|-----------------|-----------------|-----------------|
    |-----------------|-----------------|-----------------|-----------------|
    | |
    |-----------------|-----------------|-----------------|-----------------|
    |-----------------|-----------------|-----------------|-----------------|
    |-3---------------|-----------------|-----------------|-----------------|
    |-----------------|-----------------|-----------------|-----------------|
    {END RIFF H}
    Play RIFF F twice
    Play RIFF G once
    Play RIFF H once
    {RIFF I}
    |-----------------|-----------------|-----------------|-----------------|
    |-----------------|-----------------|-----------------|-----------------|
    |-9-9-9-9-9-9-9-9-|-9-9-9-9-9-9-9-9-|-9-9-9-9-9-9-9-9-|-9-9-9-9-9-9-9-9-|
    |-9-9-9-9-9-9-9-9-|-9-9-9-9-9-9-9-9-|-9-9-9-9-9-9-9-9-|-9-9-9-9-9-9-9-9-|
    |-7-7-7-7-7-7-7-7-|-7-7-7-7-7-7-7-7-|-7-7-7-7-7-7-7-7-|-7-7-7-7-7-7-7-7-|
    |-----------------|-----------------|-----------------|-----------------|
    | pm................................................................... |
    | |
    |-----------------|-----------------|-----------------|-----------------|
    |-----------------|-----------------|-----------------|-----------------|
    |-----------------|-----------------|-----------------|-----------------|
    |-----------------|-----------------|-----------------|-----------------|
    |-----------------|-----------------|-----------------|-----------------|
    |-----------------|-----------------|-----------------|-----------------|
    | |
    |-----------------|-----------------|-----------------|-----------------|
    |-----------------|-----------------|-----------------|-----------------|
    |-7--7----------7-|-7--7------------|--5--------------|-3---------------|
    |-----------------|-----------------|-----------------|-----------------|
    {END RIFF I}
    Play RIFF I three times more...
    One guitar makes a pickslide..
    {RIFF J}
    |-----------------|-----------------|-----------------|-----------------|
    |-----------------|-12-------10-----|-10-----------12-|-----------------|
    |-9---------------|--------------12-|-----------------|-12--------------|
    |-----------------|-----------------|-----------------|-----------------|
    |-----------------|-----------------|-----------------|-----------------|
    |-----------------|-----------------|-----------------|-----------------|
    | |
    |-----------------|-----------------|-----------------|-----------------|
    |-----------------|-----------------|-----------------|-----------------|
    |-9---------------|-----------------|-7---------------|-5---------------|
    |-9---------------|-5---------------|-7---------------|-5---------------|
    |-7---------------|-5---------------|-5---------------|-3---------------|
    |-----------------|-3---------------|-----------------|-----------------|
    | |
    |-----------------|-----------------|-----------------|-----------------|
    |-----------------|-----------------|-----------------|-----------------|
    |-7-7-7-7-7-7-7-7-|-----------------|-5-5-5-5-5-5-5-5-|-3-3-3-3-3-3-3-3-|
    |-----------------|-3-3-3-3-3-3-3-3-|-----------------|-----------------|
    {END RIFF J}
    Play RIFF J once again
    {RIFF K}(solo)
    |-----------------|-----------------|-----------------|-----------------|
    |-15b17----r---15b|17----15b17r--13-|-12-13-15--------|-----------------|
    |-----------------|-----------------|---------14-12-14|16-14~~----141617|
    |-----------------|-----------------|-----------------|-----141617------|
    |-----------------|-----------------|-----------------|-----------------|
    |-----------------|-----------------|-----------------|-----------------|
    | |
    |-----------------|-----------------|-----------------|-----------------|
    |-----------------|-----------------|-----------------|-----------------|
    |-9------------5--|-----------------|---------------7-|-----------------|
    |-9------------5--|-----------------|-5-------------7-|-----------------|
    |-7------------3--|-----------------|-5-------------5-|-----------------|
    |-----------------|-----------------|-3---------------|-----------------|
    | |
    |-----------------|-----------------|-----------------|-----------------|
    |-----------------|-----------------|-----------------|-----------------|
    |-7-7-7-7-7-7-7-3-|-3-3-3-3-3-3-3-3-|---------------5-|-5-5-5-5-5-5-5-5-|
    |-----------------|-----------------|-3-3-3-3-3-3-3---|-----------------|
    (cont)
    |-----------------|-----------------|-----------------|-----------------|
    |-----------------|-----------------|-17---19--20---19|~~~~-------------|
    |-16-----------16-|-----------------|-----------------|-----------------|
    |-----17----------|-17--------------|-----------------|-----------------|
    |---------17------|-----17----------|-----------------|-----------------|
    |-----------------|-----------------|-----------------|-----------------|
    | |
    |-----------------|-----------------|-----------------|-----------------|
    |-----------------|-----------------|-----------------|-----------------|
    |-9---------------|-----------------|-----------------|----------8--8---|
    |-9------------5--|-----------------|-7-------------9-|----------8--8---|
    |-7------------5--|-----------------|-7-------------9-|----------6--6---|
    |--------------3--|-----------------|-5-------------7-|-----------------|
    | pm.. |
    | |
    (cont) T T T T
    |-15b17-------r-15|-14-15-14----12--|---------------------------|-----------------|
    |-----------------|----------15-----|201512201512201512201512---|-----------------|
    |-----------------|-----------------|------------------------14~|--------------141617|
    |-----------------|-----------------|---------------------------|----------121415-|
    |-----------------|-----------------|---------------------------|-----121415------|
    |-----------------|-----------------|---------------------------|121415-----------|
    | pm...............|
    | |
    |-----------------|-----------------|---------------------------|-----------------|
    |-----------------|-----------------|---------------------------|-----------------|
    |-9------------5--|-----------------|-------------------------7-|-----------------|
    |-9------------5--|-----------------|-5-----------------------7-|-----------------|
    |-7------------3--|-----------------|-5-----------------------5-|-----------------|
    |-----------------|-----------------|-3-------------------------|-----------------|
    | |
    |-----------------|-----------------|---------------------------|-----------------|
    |-----------------|-----------------|---------------------------|-----------------|
    |-7-7-7-7-7-7-7-3-|-3-3-3-3-3-3-3-3-|-------------------------5-|-5-5-5-5-5-5-5-5-|
    |-----------------|-----------------|-3---3--3---3--3---3--3----|-----------------|
    (cont)
    |-----------------|-----------------|-----------------|-----------------|
    |-----------------|-----------------|-----------------|-----------------|
    |-16---17-19----17|------16----12---|-14--16--17---16~|~~~~-------------|
    |-----------------|-----------------|-----------------|-----------------|
    |-----------------|-----------------|-----------------|-----------------|
    |-----------------|-----------------|-----------------|-----------------|
    | |
    |-----------------|-----------------|-----------------|-----------------|
    |-----------------|-----------------|-----------------|-----------------|
    |-9---------------|-----------------|-----------------|-----------------|
    |-9------------5--|-----------------|-7-------------9-|-----------------|
    |-7------------5--|-----------------|-7-------------9-|-----------------|
    |--------------3--|-----------------|-5-------------7-|-----------------|
    {END RIFF J}solo
    Play RIFF H once
    Play RIFF I twice
    Play RIFF I twice while fading