You play the

We are working hard to improve our content offering for your instrument.

You can still access it, but it will not be optimised or supported in our premium offering.

You now have access to over 400,000 sheets, tabs and chords!
Discover our Premium offer below:
Free
0.00€/month
  • 400k+ chords and lyrics
  • Video tutorials
  • Create playlists with your favourite songs
  • 200k+ sheet music
  • Zero ads
  • Offline sync for iOS users
Premium
9.99€/month
  • 400k+ chords and lyrics
  • Video tutorials
  • Create playlists with your favourite songs
  • 200k+ sheet music
  • Zero ads
  • Offline sync for iOS users
Barra americana by Fito & Fitipaldis

Play to learn

Barra americanaFito & Fitipaldis

0
0
Tracks
is available only in app!
Tempo
is available only in app!
Transpose
-11 11
Loop
is available only in app!
Scroll Speed
slow fast
Herzelia Hill's avatar
Created by
Herzelia

Guitar Chords

    Most Popular Scores

    The BeatlesEleanor Rigby The BeatlesYesterday Michael JacksonBeat It System of a DownLonely Day System of a DownAerials / Arto The BeatlesAll You Need Is Love
    DmA7Dm
     
    1 |------5-5----10-5--------5--------------|
    2 |----6-----8-------8-6------6-8-6--------|
    3 |--7-------------------7----------7------|
    4 |----------------------------------------|
    5 |----------------------------------------|
    6 |----------------------------------------|
    A7
     
    1 |---5-----------------------5-------|
    2 |-----6h8p6h8p6-8b8-------5---8-----|
    3 |---------------------5-6-------6-7-|
    4 |-----------------------------------|
    5 |-----------------------------------|
    6 |-----------------------------------|
    DmA7
    Barra americana de precios baratos 
    Dm
    aquí nadie se fija si te brillan los zapatos. 
    DmA7
    Vestidos ajustados de muchos colores, 
    Dm
    El ventilador te mezcla todos los olores. 
    CDm
    Ven hacia mí 
    CDm
    podemos hablar tranquilos 
    CDm
    Ven hacia mí 
    BbC
    Esta noche puedes ser feliz. 
    DmA7Dm
     
    1 |------5-5----10-5--------5--------------|
    2 |----6-----8-------8-6------6-8-6--------|
    3 |--7-------------------7----------7------|
    4 |----------------------------------------|
    5 |----------------------------------------|
    6 |----------------------------------------|
    A7
     
    1 |---5-----------------------5-------|
    2 |-----6h8p6h8p6-8b8-------5---8-----|
    3 |---------------------5-6-------6-7-|
    4 |-----------------------------------|
    5 |-----------------------------------|
    6 |-----------------------------------|
    DmA7
    Aquí la tentación está apoyada en una barra 
    Dm
    El pelo es amarillo como el whisky de garrafa. 
    DmA7
    Sería mucho más fácil recitar la biblia en chino 
    Dm
    Que irse con Mary Luz sin un duro en el bolsillo. 
    CDm
    Ven hacia mí 
    CDm
    podemos hablar tranquilos 
    CDm
    Ven hacia mí 
    BbC
    Esta noche puedes ser feliz. 
    Instrumental SAXO
    Acompañamiento: Dm A7 Dm A7 Dm Bb A7 Dm Bb A7 Dm Bb A7 Dm
    CDm
    Ven hacia mí 
    CDm
    podemos hablar tranquilos 
    CDm
    Ven hacia mí 
    BbC
    Esta noche puedes ser feliz. 
    CDm
    Ven hacia mí 
    CDm
    podemos hablar tranquilos 
    CDm
    Ven hacia mí 
    BbC
    Esta noche puedes ser feliz. 
    Final: (x3)
    DmCDm
    1|-------------------------------| 
    2|----6-8-6-----6-8-6------------|
    3|--7-------7-7-------7---5-7----|
    4|-------------------------------|
    5|-------------------------------|
    6|-------------------------------|
    Se la dedico a mi novia que a raíz de mi pesadez le ha acabado
    gustando la música de Fito. Te quiero