You play the

We are working hard to improve our content offering for your instrument.

You can still access it, but it will not be optimised or supported in our premium offering.

You now have access to over 400,000 sheets, tabs and chords!
Discover our Premium offer below:
Free
0.00€/month
  • 400k+ chords and lyrics
  • Video tutorials
  • Create playlists with your favourite songs
  • 200k+ sheet music
  • Zero ads
  • Offline sync for iOS users
Premium
9.99€/month
  • 400k+ chords and lyrics
  • Video tutorials
  • Create playlists with your favourite songs
  • 200k+ sheet music
  • Zero ads
  • Offline sync for iOS users
Barra americana by Fito & Fitipaldis
video thumbnail
More Videos

Play to learn

Barra americanaFito & Fitipaldis

0
0
Tracks
is available only in app!
Tempo
is available only in app!
Transpose
-11 11
Loop
is available only in app!
Scroll Speed
slow fast
Kabija Hanna's avatar
Created by
Kabija

Guitar Chords

    Most Popular Scores

    System of a DownLonely Day System of a DownAerials / Arto The Rolling Stones(I Can’t Get No) Satisfaction The Rolling StonesAngie Linkin ParkIn the End QueenUnder Pressure
    Aqui esta mi version de esta cancion
    si quereis tocarla bien fijense en
    los acordes que e cifrado puesto que
    en el glosario de acordes no de indican
    les aseguro que si lo tocan asi y le
    ponen algun que otro full con la electrica
    suena igual,un salu2 espero que os mole.
    (punteo)
    -----------------10--------------------------------
    ---6-10--10--8-----10--8--6----10--6--8--6---------
    -7--------------------------7--------------7-------
    ---------------------------------------------------
    ---------------------------------------------------
    ---------------------------------------------------
    ---------------------------------------------------
    -8-10-8--6-8-10-8-----6--10--8---------------------
    -------------------0-6---------6--7----------------
    ---------------------------------------------------
    ---------------------------------------------------
    ---------------------------------------------------
    A5 es = 557765
    e5 es =577655
    A3 es = 335553
    Bb es = 113331
    A5E5
    Barra americana de precios baratos 
    E5A5
    aquí nadie se fija si te brillan los zapatos. 
    A5E5
    Vestidos ajustados de muchos colores, 
    E5A5
    el ventilador te mezcla todos los olores. 
    a3(solo dos toques)seguidamente a5
    Ven hacia mí...
    a3(2 toques)a5
    podemos hablar tranquilos.
    a3 (2 toques)a5
    Ven hacia mí...
    BbA3
    esta noche puedes ser feliz. 
    (repetimos el punteodel principio)
    A5E5
    Aquí la tentación está apoyada en una barra 
    E5A5
    su pelo es amarillo como el whisky de garrafa. 
    A5E5
    Sería mucho más fácil recitar la biblia en chino 
    E5A5
    que irse con Mari Lupi sin un duro en el bolsillo. 
    a3 (2 toques)etc...
    Ven hacia mí...
    bY;juanjo Un saludo