Pretty Blue Eyes chords & lyrics - Eric Clapton

You play the

We are working hard to improve our content offering for your instrument.

You can still access it, but it will not be optimised or supported in our premium offering.

You now have access to over 400,000 sheets, tabs and chords!
Discover our Premium offer below:
Free
0.00€/month
  • 400k+ chords and lyrics
  • Video tutorials
  • Create playlists with your favourite songs
  • 200k+ sheet music
  • Zero ads
  • Offline sync for iOS users
Premium
9.99€/month
  • 400k+ chords and lyrics
  • Video tutorials
  • Create playlists with your favourite songs
  • 200k+ sheet music
  • Zero ads
  • Offline sync for iOS users
Pretty Blue Eyes by Eric Clapton

Play to learn

Pretty Blue EyesEric Clapton

0
0
Tracks
is available only in app!
Tempo
is available only in app!
Transpose
-11 11
Loop
is available only in app!
Scroll Speed
slow fast
Martin-buster Goodman's avatar
Created by
Martin-buster

Guitar Chords

    Most Popular Scores

    Arctic MonkeysNo. 1 Party Anthem Maroon 5Maps Eric ClaptonWonderful Tonight Eric ClaptonTears in Heaven The DoorsSpanish Caravan David BowieStarman
    INTRO:
    (listen to recording to get exact strumming pattern)
    MAIN RHYTHM FIGURE:
    (listen to recording to get exact strumming pattern)
    Gtr.I (rhythm)
    AE7A
    |---0--0-0-0---0--0-0--0----0-0--0-0---0--0-0-0-0------------------| 
    |---2--2-2-2---3--3-3--3----3-3--3-3---2--2-2-2-2------------------|
    |---2--2-2-2---1--1-1--1----1-1--1-1---2--2-2-2-2------------------|
    |---2--2-2-2---2--2-2--2----2-2--2-2---2--2-2-2-2------------------|
    |---0--0-0-0---2--2-2--2----2-2--2-2---0--0-0-0-0------------------|
    |--------------0--0-0--0----0-0--0-0-------------------------------|
    | |
    |Gtr.II (lead) |
    |------------------------------------------------------------------|
    |------------------------------------------------------------------|
    |------------------------------------------------------------------|
    |--9b(10)r9--7----------------------7--9-----7---------------------|
    |---------------9--7-------7--7--9--------9------------------------|
    |------------------------------------------------------------------|
    HARMONY VOCALS SECTION:
    SONG SETUP:
    (Play intro figure x1)
    (Play main rhythm fig. x4)
    Verse #1:
    AE7A
    Left alone to cry while he goes out singing 
    AE7A
    And she don't see why a wedding bell ain't ringing 
    (play main rhythm fig. X2)
    Verse #2:
    AE7A
    Left alone to cry while he goes out rocking 
    AE7A
    And she can't see why it ain't her he's socking 
    (play main rhythm fig. x2)
    (play harmony vocals section x2)
    (play main rhythm fig. x2)
    Verse #3:
    AE7A
    Left alone to cry, life don't seem worth living 
    AE7A
    It's time to say goodbye, you've done enough forgiving 
    (play main rhythm fig. x2)
    (play harmony vocals section x2)
    (play main rhythm fig. w/acoustic solo until fade)