You play the

We are working hard to improve our content offering for your instrument.

You can still access it, but it will not be optimised or supported in our premium offering.

You now have access to over 400,000 sheets, tabs and chords!
Discover our Premium offer below:
Free
0.00€/month
  • 400k+ chords and lyrics
  • Video tutorials
  • Create playlists with your favourite songs
  • 200k+ sheet music
  • Zero ads
  • Offline sync for iOS users
Premium
9.99€/month
  • 400k+ chords and lyrics
  • Video tutorials
  • Create playlists with your favourite songs
  • 200k+ sheet music
  • Zero ads
  • Offline sync for iOS users
The Unbeliever by Edguy

Play to learn

The UnbelieverEdguy

0
0
Tracks
is available only in app!
Tempo
is available only in app!
Transpose
-11 11
Loop
is available only in app!
Scroll Speed
slow fast
Celestinia Teague's avatar
Created by
Celestinia

Guitar Chords

    Most Popular Scores

    NightwishLast of the Wilds ApocalypticaBittersweet MegadethIn My Darkest Hour ApocalypticaPath ApocalypticaNot Strong Enough ApocalypticaHope
    All guitars are 1/2 downed
    INTRO:
    eb||-----|
    Bb||-----|
    Gb||-----|
    Db||-----|
    Ab||19s7-|
    Eb||-----|
    Ebm
    Left 
    P.M . . . . . . . . . . . . . . . . . . . . . .
    Ebsus2
    Left 
    . . . . . . . . . . . . . . . . . . . . . . .
    Db
    Both 
    . . . . . . . . . . . . . . . . . . . . . . .
    Abm
    Both 
    . . . . . . . . . . . |. . . . . . . . . . . . . . . . | Ok. I know this part isn't
    correct,
    . . . . . . . . . . . . . . . .
    INTRO + VERSE:
    . . . . . . . . . . . . . . . . .
    . . . . . . . . . . . . . . . . .
    . . . . . . . . . . . . . . . . .
    Abm
    Left 
    eb||--------------------------------|--------------------------------|
    Bb||--------------------------------|--------------------------------|
    Gb||--------------------------------|--------------------------------|
    Db||--------------------------------|--------------------------------|
    Ab||7---7-7-7---7---7-7-7---7---7-7-|----7---5---7---8---7---5-------|
    Eb||5---5-5-5---5---5-5-5---5---5-5-|----------------------------8---|
    ||. . . . . . . . . . . . . . . . . . |
    || Right |
    eb||--------------------------------|--------------------------------|
    Bb||--------------------------------|--------------------------------|
    Gb||--------------------------------|--------------------------------|
    Db||--------------------------------|--------------------------------|
    Ab||7---7-7-7---7---7-7-7---7---7-7-|7---3---2---3---5---3---2---0---|
    Eb||5---5-5-5---5---5-5-5---5---5-5-|5---5---5---5---5---5---5---5---|
    . . . . . . . . . . . . . . . . . .
    INTRO ONLY:
    BAbDbBb
    Left 
    eb||-------|-------|-------|----------------|
    Bb||-------|-------|-------|----------------|
    Gb||-------|-------|-------|------------A.H-|
    Db||5------|-------|7------|4-----4-----4~--|
    Ab||3------|7------|5------|--2-2---2-2-----|
    Eb||-------|5------|-------|----------------|
    || . . . . |
    || Right |
    eb||-------|-------|-------|----------------|
    Bb||-------|-------|-------|----------------|
    Gb||-------|-------|-------|----------------|
    Db||-------|-------|-------|1-----1-----1~--|
    Ab||-------|-------|-------|--2-2---2-2-----|
    Eb||-------|-------|-------|----------------|
    . . . .
    Verse:
    BRIDGE:
    eb||---------|-----------|----------|-----------|-----------|------------|----------|---------|
    Bb||---------|-----------|----------|-----------|-----------|------------|----------|---------|
    Gb||---------|-----------|----------|-----------|-----------|------------|----------|---------|
    Db||7--------|-----------|7---------|-----------|-----------|------------|----------|---------|
    Ab||5--------|-------7---|5---------|-----------|7----------|--------2---|7---------|---------|
    Eb||---------|-------5---|----------|-----------|5----------|--------0---|5---------|---------|
    || |
    ||Clean guitar with some chorus added |
    eb||--------------|10------10----------|---------------|10------10---8----|
    Bb||--------------|---10------8---10---|-------7-------|---10----------10-|
    Gb||-------7------|--------------------|---------7---7-|------------------|
    Db||0-------------|--------------------|0--------------|------------------|
    Ab||--------------|--------------------|---------------|------------------|
    Eb||--------------|--------------------|---------------|------------------|
    eb||--------|-----------|-----------|-----------|----------------|----------------|----------------|
    Bb||--------|-----------|-----------|-----------|----------------|----------------|----------------|
    Gb||--------|-----------|-----------|-----------|----------------|----------------|----------------|
    Db||7-------|-----------|7----------|------12s5-|5---5-5-5---5-5-|5---5-5-5---5---|----------------|
    Ab||5-------|-------7---|5----------|------10s3-|3---3-3-3---3-3-|3---3-3-3---3-7-|9-9-9-9-9-9-9-9-|
    Eb||--------|-------5---|-----------|-----------|----------------|--------------5-|7-7-7-7-7-7-7-7-|
    || | . . . . . . . . . . . . . . . .
    || Clean guitar with some chorus added |
    eb||--------------|10------10----------|--------------|-------------|
    Bb||--------------|---10------8---10---|--------------|7-----7-10---|
    Gb||-------7------|--------------------|-------7------|--7----------|
    Db||0-------------|--------------------|0-------------|-------------|
    Ab||--------------|--------------------|--------------|-------------|
    Eb||--------------|--------------------|--------------|-------------|
    FILL-IN:
    Left
    eb||--------------------------------|
    Bb||--------------------------------|
    Gb||--------------------------------|
    Db||--------------------------------|
    Ab||9---9-9-9---7---9---7---5---4---|
    Eb||7---7-7-7---5---7---5---3---2---|
    ||. . . . . . . . . |
    || Right |
    eb||--------------------------------|
    Bb||--------------------------------|
    Gb||--------------------------------|
    Db||9---9-9-9---7---9---7-----------|
    Ab||------------------------10--9---|
    Eb||--------------------------------|
    . . . . . . . . .
    CHORUS:
    Both
    . .
    Left
    eb||------------------------|------------------------|------------------------|--------------------------------|
    Bb||------------------------|------------------------|------------------------|--------------------------------|
    Gb||------------------------|------------------------|------------------------|--------------------------------|
    Db||5-----5-----5-----5-----|5-----5-----5-----5-----|7-----7-----7-----7-----|5h7---------5h7---------5h7---7-|
    Ab||--3-3---3-3---3-3---3-3-|--3-3---3-3---3-3---3-3-|--5-5---5-5---5-5---5-5-|----5-5-5-5-----5-5-5-5---------|
    Eb||------------------------|------------------------|------------------------|--------------------------------|
    || . . . . . . . . . . . . . . . . . . . . . . . . . . . . . . . .
    |
    || Right
    |
    eb||------------------------|------------------------|------------------------|--------------------------------|
    Bb||------------------------|------------------------|------------------------|--------------------------------|
    Gb||------------------------|------------------------|------------------------|--------------------------------|
    Db||2-----2-----2-----2-----|2-----2-----2-----2-----|4-----4-----4-----4-----|2h4---------2h4---------2h4---4-|
    Ab||--3-3---3-3---3-3---3-3-|--3-3---3-3---3-3---3-3-|--5-5---5-5---5-5---5-5-|----5-5-5-5-----5-5-5-5---------|
    Eb||------------------------|------------------------|------------------------|--------------------------------|
    . . . . . . . . . . . . . . . . . . . . . . . . . . . . . . . . . . . . . . . . . . . . . . .
    Both
    . .
    Left
    eb||------------------------|------------------------|------------------------|------------------|
    Bb||------------------------|------------------------|------------------------|------------------|
    Gb||------------------------|------------------------|------------------------|------A.H---------|
    Db||5-----5-----5-----5-----|5-----5-----5-----5-----|7-----7-----7-----7-----|7-7-7-7-7-7-7s2---|
    Ab||--3-3---3-3---3-3---3-3-|--3-3---3-3---3-3---3-3-|--5-5---5-5---5-5---5-5-|--5-5---5-5-------|
    Eb||------------------------|------------------------|------------------------|------------------|
    || . . . . . . . . . . . . . . . . . . . . . . . . . . . . |
    || Right |
    eb||------------------------|------------------------|------------------------|------------------|
    Bb||------------------------|------------------------|------------------------|------------------|
    Gb||------------------------|------------------------|------------------------|------------------|
    Db||2-----2-----2-----2-----|2-----2-----2-----2-----|4-----4-----4-----4-----|4-----4-----4s2---|
    Ab||--3-3---3-3---3-3---3-3-|--3-3---3-3---3-3---3-3-|--5-5---5-5---5-5---5-5-|--5-5---5-5-------|
    Eb||------------------------|------------------------|------------------------|------------------|
    . . . . . . . . . . . . . . . . . . . . . . . . . . . . . . . . . . . . . . . .
    SHORT FILL:
    Ebm
    Both 
    . . . . . . . . . . . . . . . . .
    Bm
    Left 
    eb||--------------------------------|--------------------------------|
    Bb||--------------------------------|--------------------------------|
    Gb||--------------------------------|--------------------------------|
    Db||5---5-5-5---5---5-5-5---5---5-5-|5---5---5-5-5---5-5-5-5-5---4---|
    Ab||3---3-3-3---3---3-3-3---3---3-3-|3---3---3-3-3---3-3-3-3---------|
    Eb||--------------------------------|--------------------------------|
    ||. . . . . . . . . . . . . . . . . . . . |
    || Right |
    eb||--------------------------------|--------------------------------|
    Bb||--------------------------------|------------------------A.H-A.H-|
    Gb||--------------------------------|------------------------4---2---|
    Db||5---5-5-5---5---5-5-5---5---5-5-|5---5---5-5-5---5-5-5-5---------|
    Ab||3---3-3-3---3---3-3-3---3---3-3-|3---3---3-3-3---3-3-3-3---------|
    Eb||--------------------------------|--------------------------------|
    . . . . . . . . . . . . . . . . . . . .
    Ebm
    Both 
    . . . . . . . . . . . . . . . . .
    Abm
    Both 
    . . . . . . . . . . . . . . . . . . .
    Verse
    Bridge
    Chorus
    SOLO 1:
    guitar 1
    guitar 2
    p.m . . . . . . . . . . . . . . . . . . . . . . . . . . . . . . . . . . . . . . . .
    . . . . . . . . . . . . . . . . . . . . . . . . . . . . . . . . . . . . . . . . .
    solo 2:
    guitar 1:
    guitar 2
    The "I'm born and I lead the weak into the fire..." section goes with the same chord as in solo
    part I and II.
    solo 3:
    guitar 1
    | just for organizing..
    guitar 2
    . . . . . . . . . . . . . . . . . . . . . . . . . . .
    . . . . . . . . . . . . . . . . . . . . . . . . . . .
    Fill-in:
    Chours:
    The End.