You play the

We are working hard to improve our content offering for your instrument.

You can still access it, but it will not be optimised or supported in our premium offering.

You now have access to over 400,000 sheets, tabs and chords!
Discover our Premium offer below:
Free
0.00€/month
  • 400k+ chords and lyrics
  • Video tutorials
  • Create playlists with your favourite songs
  • 200k+ sheet music
  • Zero ads
  • Offline sync for iOS users
Premium
9.99€/month
  • 400k+ chords and lyrics
  • Video tutorials
  • Create playlists with your favourite songs
  • 200k+ sheet music
  • Zero ads
  • Offline sync for iOS users
How Many Miles by Edguy

Play to learn

How Many MilesEdguy

0
0
Tracks
is available only in app!
Tempo
is available only in app!
Transpose
-11 11
Loop
is available only in app!
Sheet
is available only in app!
Scroll Speed
slow fast
Rose-lise Mason's avatar
Created by
Rose-lise

Guitar Chords

    Most Popular Scores

    Breaking BenjaminThe Diary of Jane Ozzy OsbourneMama, I'm Coming Home Ozzy OsbourneCrazy Train Tenacious DClassico Ozzy OsbourneNo More Tears Tenacious DTribute
    Tablature explanation:
    h = hammer on . = Palm mute
    p = pull off A.H = Artificial harmonics
    b = Bend pb = prebend
    rb = release bend / = slide
    * = strike the note THEN (when * shows up) mute it
    INTRO:
    . . . .
    Repeat figure during verses. Last time, skip the E5 and let the
    G5 ring.
    . . . .
    Oh yeah...
    VERSE 1:
    Watching a face and a smile and a light
    When you're walking alone in the street
    I know your look always gives you the might
    Many miles from your ass to your feet
    BRIDGE:
    D5G5
    E||--------------------------------|--------------------------------| 
    B||--------------------------------|--------------------------------|
    G||--------------------------------|--------------------------------|
    D||7-7-7-7-7-7-7-7-7-7-7-7-7-7-7-7-|--------------------------------|
    A||5-5-5-5-5-5-5-5-5-5-5-5-5-5-5-5-|5-5-----5-------5-5-----5-------|
    e||--------------------------------|3-3-----3-------3-3-----3-------|
    ||. . . . . . . . . . . . . . . . . . . . . . |
    || |
    E||--------------------------------|----------------------------3-3-|
    B||--------------------------------|----------------3-3-5-5-6-6-----|
    G||--------------------------------|----2-2-4-4-5-5-----------------|
    D||--------------------------------|5-5-----------------------------|
    A||--------------------------------|--------------------------------|
    e||--------------------------------|--------------------------------|
    || . . . . . . . . . . . . . . . . |
    || |
    || |
    E||--------------------------------|--------------------3-3-5-5-7-7-|
    B||--------------------------------|--------3-3-5-5-6-6-------------|
    G||--------------------------------|4-4-5-5-------------------------|
    D||--------------------------------|--------------------------------|
    A||--------------------------------|--------------------------------|
    e||--------------------------------|--------------------------------|
    . . . . . . . . . . . . . . . .
    And I dream...
    C5G5
    E||--------------------------------|--------------------------------| 
    B||--------------------------------|--------------------------------|
    G||--------------------------------|--------------------------------|
    D||5-------------------------------|--------------------------------|
    A||3-------------------------------|3-------3-3-----3-------3-3-----|
    e||--------------------------------|1-------1-1-----1-------1-1-----|
    || . . . . . . |
    || |
    E||--------------------------------|--------------------------------|
    B||--------------------------------|--------------------3-3-5-5-6-6-|
    G||--------------------------------|--------2-2-3-3-5-5-------------|
    D||--------------------------------|3-3-5-5-------------------------|
    A||--------------------------------|--------------------------------|
    e||--------------------------------|--------------------------------|
    || . . . . . . . . . . . . . . . . |
    || |
    E||--------------------------------|------------------------3-3-5-5-|
    B||--------------------------------|------------3-3-5-5-6-6---------|
    G||--------------------------------|2-2-3-3-5-5---------------------|
    D||--------------------------------|--------------------------------|
    A||--------------------------------|--------------------------------|
    e||--------------------------------|--------------------------------|
    . . . . . . . . . . . . . . . .
    What I've seen...
    A#5G5A5
    E||-------------------|---------------|-----------------------------------------| 
    B||-------------------|---------------|-----------------------------------------|
    G||-------------------|---------------|-----------------------------------------|
    D||3------------------|---------------|-----------------------------------------|
    A||1------------------|5--------------|7---------------------------------*------|
    e||-------------------|3--------------|5---------------------------------*------|
    || |
    || |
    E||-------------------|---------------|----------------------|------------------|
    B||-------------------|---------------|----------------------|------------------|
    G||-------------------|---------------|----------------------|------------------|
    D||-------------------|---------------|7*-5*-7*-8*-7h8p7-5*--|7*-5*-7-5-7*------|
    A||-------------------|---------------|----------------------|------------------|
    e||-------------------|---------------|----------------------|------------------|
    Is what I want it to be - Selfmade Reality
    CHORUS:
    D5A#5G5C5A5
    How many miles to the gate of reality 
    D5A#5C5F5G5
    How many steps left to go to my dreams 
    D5A#5G5C5A5
    How many miles to the land where my dreams come true 
    D5A#5C5F5G5
    Dreams which come true just have died 
    . . . .
    VERSE 2:
    Look like a Queen but you talk like a pawn
    And I know you're a fool in disguise
    Godfather tell me how to carry on
    Blinded by fantasies of lies
    BRIDGE:
    And I dream - what I've seen
    Is what I want it to be - selfmade reality
    CHORUS:
    D5A#5G5C5A5
    How many miles to the gate of reality 
    D5A#5C5F5G5
    How many steps left to go to my dreams 
    D5A#5G5C5A5
    How many miles to the land where my dreams come true 
    D5A#5C5F5G5
    Dreams which come true just have died 
    STICK:
    Keyboard plays | Dm | C | A# | |
    . . . . . . . . .
    I see your smile, a golden masquerade
    And I know my dream it will be my fate
    D3
    . . . . . . . . .
    Time has stolen my fantasy
    Cause it has become a pale reality
    SOLO:
    Part 1:
    Part II:
    Have no idea whatsoever how to trancribe this, so I just explain it instead!
    Part III:
    Two versions of the same riff...
    a)
    Alternatively, play
    b)
    Tapping
    THEN,
    Part IV:
    ***, this part is though! I'm
    stuck, but I
    will finish this last part
    later on. Hopefully.
    N O T F I N I S H E D
    Part V: