You play the

We are working hard to improve our content offering for your instrument.

You can still access it, but it will not be optimised or supported in our premium offering.

You now have access to over 400,000 sheets, tabs and chords!
Discover our Premium offer below:
Free
0.00€/month
  • 400k+ chords and lyrics
  • Video tutorials
  • Create playlists with your favourite songs
  • 200k+ sheet music
  • Zero ads
  • Offline sync for iOS users
Premium
9.99€/month
  • 400k+ chords and lyrics
  • Video tutorials
  • Create playlists with your favourite songs
  • 200k+ sheet music
  • Zero ads
  • Offline sync for iOS users
Falling Down by Edguy

Play to learn

Falling DownEdguy

0
0
Tracks
is available only in app!
Tempo
is available only in app!
Transpose
-11 11
Loop
is available only in app!
Sheet
is available only in app!
Scroll Speed
slow fast
Keiza Pappas's avatar
Created by
Keiza

Guitar Chords

    Most Popular Scores

    AC/DCT.N.T. SlipknotPsychosocial EvanescenceBring Me to Life AC/DCHells Bells EvanescenceHello Three Days GraceNever Too Late
    Tablature explanation:
    h = hammer on . = Palm mute
    p = pull off A.H = Artificial harmonics
    b = Bend pb = prebend
    r = release bend s = slide
    All guitars are 1/2 downed
    {Intro:}
    eb||----------|
    Bb||10-8------|
    Gb||-----10-9-|
    Db||----------|
    Ab||----------|
    Eb||----------|
    || |
    eb||----------|
    Bb||----------|
    Gb||10-9-7----|
    Db||-------10-|
    Ab||----------|
    Eb||----------|
    C#5A#5B5G#5
    eb||-------------------|------------------|----------------|-------------------| 
    Bb||-----10---8--------|10b11r---8---10---|8---------------|-------8--8b10r----|
    Gb||10------------10---|------------------|----------------|9--10------------9-|
    Db||-------------------|------------------|----------------|-------------------|
    Ab||-------------------|------------------|----------------|-------------------|
    Eb||-------------------|------------------|----------------|-------------------|
    ||
    |
    eb||-------------------|------------------|----------------|------------------|
    Bb||-------------------|------------------|----------------|------------------|
    Gb||7---10---9---7-----|10b12r---9---10---|9---------------|----7--9--9b10r---|
    Db||-------------------|------------------|----------------|10-------------10-|
    Ab||-------------------|------------------|----------------|------------------|
    Eb||-------------------|------------------|----------------|------------------|
    C#5A#5B5C#5
    eb||-------------------|------------------|----------------|------------------| 
    Bb||-----10---8--------|10b11r---8---10---|8---------------|------------------|
    Gb||10------------10---|------------------|----------------|------------------|
    Db||-------------------|------------------|----------------|------------------|
    Ab||-------------------|------------------|----------------|------------------|
    Eb||-------------------|------------------|----------------|------------------|
    ||
    |
    eb||-------------------|------------------|----------------|-------------------|
    Bb||-------------------|------------------|----------------|-------------------|
    Gb||7---10---9---7-----|10b12r---9---10---|9---------------|----7--9--9b10r----|
    Db||-------------------|------------------|----------------|10--------------10-|
    Ab||-------------------|------------------|----------------|-------------------|
    Eb||-------------------|------------------|----------------|-------------------|
    {Verse1:}
    Add some chorus to this guitar:
    eb||5----------------------|7----------------------|-----------------------|1----------------|
    Bb||5----------------------|5----------------------|8----------------------|1----------------|
    Gb||5----------------------|5----------------------|5----------------------|2----------------|
    Db||7----------------------|7----------------------|7----------------------|3----------------|
    Ab||-----------------------|-----------------------|7----------------------|-----------------|
    Eb||-----------------------|-----------------------|-----------------------|-----------------|
    ||
    |
    eb||-----------------------|-----------------------|-----------------------|--------------------|
    Bb||-----------------------|-----------------------|-----------------------|--------------------|
    Gb||-----------------------|-----------------------|-----------------------|--------------------|
    Db||7---7---7p5h7----5h7---|7---7---7p5h7----5h7---|7---7---7p5h7----5h7---|7-----9-----10~-----|
    Ab||-----------------------|-----------------------|-----------------------|8-----10----12~-----|
    Eb||-----------------------|-----------------------|-----------------------|--------------------|
    No brain is left...
    eb||5----------------------|7----------------------|-----------------------|1------------------|
    Bb||5----------------------|5----------------------|8----------------------|1------------------|
    Gb||5----------------------|5----------------------|5----------------------|2------------------|
    Db||7----------------------|7----------------------|7----------------------|3------------------|
    Ab||-----------------------|-----------------------|7----------------------|-------------------|
    Eb||-----------------------|-----------------------|-----------------------|-------------------|
    ||
    |
    eb||-----------------------|-----------------------|-----------------------|------------------|
    Bb||-----------------------|-----------------------|-----------------------|------------------|
    Gb||-----------------------|-----------------------|-----------------------|------------------|
    Db||7---7---7p5h7----5h7---|7---7---7p5h7----5h7---|7---7---7p5h7----5h7---|3-----3-----3-----|
    Ab||-----------------------|-----------------------|-----------------------|3-----3-----3-----|
    Eb||-----------------------|-----------------------|-----------------------|1-----1-----1-----|
    When he created...
    {Bridge:}
    ........
    Fill:
    eb||----------|----|
    Bb||10-8------|----|
    Gb||-----10-9-|10--|
    Db||----------|----|
    Ab||----------|----|
    Eb||----------|----|
    || |
    eb||----------|----|
    Bb||----------|----|
    Gb||10-9-7----|7---|
    Db||-------10-|----|
    Ab||----------|----|
    Eb||----------|----|
    {Chorus 1:}
    {Chorus 2:}