You play the

We are working hard to improve our content offering for your instrument.

You can still access it, but it will not be optimised or supported in our premium offering.

You now have access to over 400,000 sheets, tabs and chords!
Discover our Premium offer below:
Free
0.00€/month
  • 400k+ chords and lyrics
  • Video tutorials
  • Create playlists with your favourite songs
  • 200k+ sheet music
  • Zero ads
  • Offline sync for iOS users
Premium
9.99€/month
  • 400k+ chords and lyrics
  • Video tutorials
  • Create playlists with your favourite songs
  • 200k+ sheet music
  • Zero ads
  • Offline sync for iOS users
Ni un día by Djavan

Play to learn

Ni un díaDjavan

0
0
Tracks
is available only in app!
Tempo
is available only in app!
Transpose
-11 11
Loop
is available only in app!
Scroll Speed
slow fast
Hazel Forbes's avatar
Created by
Hazel

Guitar Chords

    Most Popular Scores

    Miles DavisBillie's Bounce SantanaCorazon espinado SadeIs It a Crime Tom WaitsChocolate Jesus Nat King ColeRoute 66 Tom WaitsMake It Rain
    Ni un dia (vercion en español)
    Intro: Dm - Dm7(b6/9/C) - F4/Bb - A4(b9) 3 veces
    Dm
    Un dia frio 
    Dm7(b6/9)/C
    un buen lugar para lear un libro
    F4/Bb
    mi pensamiento esta en ti 
    A4
    yo sin ti no vivo 
    Un dia triste
    toda fragilidad incide
    mi pensamiento esta en ti
    y todo me divide
    Dm7
    Un dia frio 
    Dm7(11)C
    un buen lugar para lear un libro
    Gm7(11)/b6
    mi pensamiento esta en ti
    A7/C
    yo sin ti no vivo 
    Un dia triste
    toda fragilidad incide
    mi pensamiento esta en ti
    y todo me divide
    F4/BDm7
    Lejos de la felicidad y todas sus luces 
    Bb7(9/13)
    te deseo como al aire
    Em 7 (11)
    mas que a todo
    A7(B13)
    mañana la naturaleza de las flores
    F4/BDm7
    lo mismo por toda riquesa de dos cheques arabes 
    Bb7(9/13)
    no te olvidaras un dia
    Em 7 (11)
    ni un un dia
    A7(B13) Em7(11)
    espero con toda la fuerza del pensamiento
    A7(B13) A7(#9)
    recrear la luz que me trata usted
    Dm
    y todo nacera mas bello 
    Dm7(b6/9)C
    verde faz azul con amarillo
    F4/B
    el cielo com todos colores 
    A4
    para enfrentar amores grices 
    Dm7(b9/9)/C F4/Bb A4(b9) Dm7 Dm7(11)/C Gm7(11)/b6
    E>---1---------1------0------5-------5----------3-----
    B>---1---------1------3------6-------3----------1-----
    G>---3---------3------3------5-------5----------3-----
    D>---2---------3------2------7-------5----------3-----
    A>---3---------1------0------5-------3----------1-----
    E>---X---------X------X------X-------X----------X-----
    A7/4 Bb7(9/13) Em7(11) A7(b13) A7(#9)
    E>---3--------3---------5--------5-------8---
    B>---3--------3---------8--------6-------8---
    G>---2--------5---------7--------6-------6---
    D>---2--------6---------X--------5-------7---
    A>---0--------X---------7--------X-------0---
    E>---X--------6---------0--------X-------X---