The Aviator chords & lyrics - Deep Purple.

You play the

We are working hard to improve our content offering for your instrument.

You can still access it, but it will not be optimised or supported in our premium offering.

You now have access to over 400,000 sheets, tabs and chords!
Discover our Premium offer below:
Free
0.00€/month
  • 400k+ chords and lyrics
  • Video tutorials
  • Create playlists with your favourite songs
  • 200k+ sheet music
  • Zero ads
  • Offline sync for iOS users
Premium
9.99€/month
  • 400k+ chords and lyrics
  • Video tutorials
  • Create playlists with your favourite songs
  • 200k+ sheet music
  • Zero ads
  • Offline sync for iOS users
The Aviator by Deep Purple.

Play to learn

The AviatorDeep Purple.

0
0
Tracks
is available only in app!
Tempo
is available only in app!
Transpose
-11 11
Loop
is available only in app!
Sheet
is available only in app!
Scroll Speed
slow fast
Mahora Conner's avatar
Created by
Mahora

Guitar Chords

    Most Popular Scores

    Ed SheeranPhotograph The CranberriesZombie Ed SheeranPhotograph Taylor SwiftBlank Space Ray CharlesHit the Road Jack Red Hot Chili PeppersCalifornication
    (0:12')
    (0:38')
    GCCGCC
    Riding on the moonpath in the silver of the night 
    GCCGCC
    The fragrance on the air was of another time 
    DGGDGG
    I cried in all my innocence you were dressed in white 
    DGGDCC
    and even if I'd had the strength I couldn't move to save my life 
    I'm tired of the bombs I'm tired of the bullets
    I'm the aviator a dream's a dream whatever it seems
    (Intro 2x) (2:40-3:04)
    GGD
    I'm tired of the bombs I'm tired of the bullets 
    GGD
    I'm tired of the crazies on TV I'm the aviator 
    FC
    A dream's a dream whatever it seems 
    GGD
    I'm tired of the news I'm tired of the weather 
    GGD
    I'm tired of the same thing every day 
    FC
    I'm the aviator A dream's a dream whatever they say 
    (4:00-4:11)
    (4:21)
    E|----------------------------10h12p10----10-12-15~-15-13-10-----12b14rb12~~--|
    B|------------------------------------13~~------------------------------------|
    G|-----------------------14~--------------------------------12~---------------|
    D|-----12b14rb12----12-14-----------------------------------------------------|
    A|-10~------------------------------------------------------------------------|
    E|----------------------------------------------------------------------------|
    (4:45)
    E|--10-12s15---15s12-8~------------------------------------------|
    B|---------------------------------------------------------------|
    G|---------------------------------------------------------------|
    D|---------------------------------------------------------------|
    A|---------------------------------------------------------------|
    E|---------------------------------------------------------------|