You play the

We are working hard to improve our content offering for your instrument.

You can still access it, but it will not be optimised or supported in our premium offering.

You now have access to over 400,000 sheets, tabs and chords!
Discover our Premium offer below:
Free
0.00€/month
  • 400k+ chords and lyrics
  • Video tutorials
  • Create playlists with your favourite songs
  • 200k+ sheet music
  • Zero ads
  • Offline sync for iOS users
Premium
9.99€/month
  • 400k+ chords and lyrics
  • Video tutorials
  • Create playlists with your favourite songs
  • 200k+ sheet music
  • Zero ads
  • Offline sync for iOS users
Accident of Birth by Bruce Dickinson

Play to learn

Accident of BirthBruce Dickinson

0
0
Tracks
is available only in app!
Tempo
is available only in app!
Transpose
-11 11
Loop
is available only in app!
Scroll Speed
slow fast
Mahbouba Farmer's avatar
Created by
Mahbouba

Guitar Chords

    Most Popular Scores

    WeezerSay It Ain't So Maroon 5She Will Be Loved Arctic MonkeysMardy Bum The DoorsRoadhouse Blues Maroon 5Payphone Death Cab for CutieI Will Follow You Into the Dark
    Intro Riff (Repeat it)
    E-----------------------------------------------|
    B-----------------------------------------------|
    G-----------------------------------------------|
    D--7-7-7-7-7-7-7-7-7-7-7-7----------------------|
    A--5-5-5-5-5-5-5-5-5-5-5-5-7-----8---8---8------|
    E--------------------------5-x-x-6---6---6------|
    pm pm pm pm pm pm pm pm
    Riff 1 (Repeat it along with the verse part)
    This goes after "Break the shackless of
    your union to the light"
    E-------------------------------------------------|
    B-------------------------------------------------|
    G-------------------------------------------------|
    D-------7---5-----7-7-7-7-7-7-7-7-10-7--7-7-7-7-7-|
    A-5h7h8------8-7--5-5-5-5-5-5-5-5-8--5--5-5-5-5-5-|
    E-------------------------------------------------|
    pm pm pm pm pm pm
    E-------------------------------------------------|
    B-------------------------------------------------|
    G-------------------------------------------------|
    D-------5---------7-7-7-7-7-7-7-7-10-7--7-7-7-7-7-|
    A-8p7p5--8-7-5----5-5-5-5-5-5-5-5-8--5--5-5-5-5-5-|
    E--------------8----------------------------------|
    pm pm pm pm pm pm
    Pre-Chorus Riff (play it only once)
    E---------------------------------------------|
    B---------------------------------------------|
    G---------------------------------------------|
    D--2-222-222-2----3-----2-222-222-2-----------|
    A--0-000-000-0-5--1--5--0-000-000-0-5--3--5---|
    E--------------3-----3--------------3--1--3---|
    E---------------------------------------------|
    B---------------------------------------------|
    G---------------------------------------------|
    E--------------3-----3------------------------|
    Chorus Riff (Only once.At the last chorus repeat
    it twice)
    E-------------------------------------------------|
    B-------------------------------------------------|
    G-------------------------------------------------|
    E-------------------------------------------------|
    pm pm pm pm pm
    E------------------------------------------------|
    B------------------------------------------------|
    G------------------------------------------------|
    E------------------------------------------------|
    pm pm pm pm pm
    E-------------------------------------------------|
    B-------------------------------------------------|
    G-------------------------------------------------|
    E-------------------------------------------------|
    pm pm pm pm pm
    Then comes this solo:
    Solo A:
    The other guitar plays the intro part
    E---------------------------------------------|
    B--15*---15--17--18*--18/20--18--17--15*------|
    G---------------------------------------------|
    D---------------------------------------------|
    A---------------------------------------------|
    E---------------------------------------------|
    E-----------------------------------------------------|
    B--18----15-------------------------------------------|
    G-----17----14-17----14-------------------------------|
    D-----------------17----15-17----15--------------17---|
    A-----------------------------17----15-17----15-------|
    E-----------------------------------------17----------|
    After playing for the second time the chorus play
    this solo:
    Solo B:
    The other guitar plays the chorus riff this time
    E---------------------------------------------|
    B--15*---15--17--18*--18/20--18--17--15*------|
    G---------------------------------------------|
    D---------------------------------------------|
    A---------------------------------------------|
    E---------------------------------------------|
    E---------------15/17-15--------------------15*-|
    B--15--17--18*-----------18--17*----17--18------|
    G-----------------------------------------------|
    D-----------------------------------------------|
    A-----------------------------------------------|
    E-----------------------------------------------|
    E--15--17--15-----------------------17-15-------|
    B--------------18*----15--17--18*---------18-17-|
    G-----------------------------------------------|
    D-----------------------------------------------|
    A-----------------------------------------------|
    E-----------------------------------------------|
    E---------------------------------------------|
    B-15------------------------------------------|
    G----17-15-14---------------------------------|
    D---------------------------------------------|
    A---------------------------------------------|
    E---------------------------------------------|
    SOLO:
    E---------------------------------------------|
    B--15h17*---15h17*----17-15-17-19-20-19-17-15-|
    G---------------------------------------------|
    D---------------------------------------------|
    A---------------------------------------------|
    E---------------------------------------------|
    E-------------------------------------------------|
    B-19-19*----19p17p15--17-17-17p15p14--15-14h15p14-|
    G-------------------16--------------16------------|
    D-------------------------------------------------|
    A-------------------------------------------------|
    E-------------------------------------------------|
    (this part play it fast .......
    E---------------------------------------------|
    D-----16p14-12-12 12*---12p11--12p11--12p11---|
    A---------------------------------------------|
    E---------------------------------------------|
    ..here ends)
    E---------------------------------------------|
    B---------------------------------------------|
    G----------7**------------------4(b)**--------|
    D-12p11p10-------------5(b)**-----------------|
    A---------------------------------------------|
    E---------------------------------------------|
    E--------------------------------------------------|
    B----------------5(b)**----------------------------|
    G----3(b)**-3(b)**---------------------------------|
    D--------------------------------------------------|
    A--------------------------------11-12-14-11-12-14-|
    E--------------------------12-14-------------------|
    (all of this I�m not
    E----------------------------------------------|
    B----------------------------------------------|
    G----------------------------11-13-14-11-13-14-|
    D----------11-12-14-11-12-14-------------------|
    A-11-12-14-------------------------------------|
    E----------------------------------------------|
    sure, but it�s aprox. just play it very fast..
    E----------------------------------------------|
    B-12-14-15-17-15-12-14-15-17-15-14-12-14-15-17-|
    G----------------------------------------------|
    D----------------------------------------------|
    A----------------------------------------------|
    E----------------------------------------------|
    ...and with some palm muting.................
    E---------------------------------------------|
    B-15-14--17*----------------------------------|
    G---------------------------------------------|
    D---------------------------------------------|
    A---------------------------------------------|
    E---------------------------------------------|
    ....ends here)
    Riffs 2:
    The other guitar plays this along with this solo.
    I figured out two ways to play it.
    This is one way:
    E------------------------------------------------------|
    B------------------------------------------------------|
    G------------------------------------------------------|
    D------------------------------------------------------|
    pm pm pm pm pm pm
    This is the other way:(choose the one you like more)
    Basically both are the same
    E--------------------------------------------------------|
    B--------------------------------------------------------|
    G--------------------------------------------------------|
    E--------------------------------------------------------|
    pm pm pm pm pm pm