You play the

We are working hard to improve our content offering for your instrument.

You can still access it, but it will not be optimised or supported in our premium offering.

You now have access to over 400,000 sheets, tabs and chords!
Discover our Premium offer below:
Free
0.00€/month
  • 400k+ chords and lyrics
  • Video tutorials
  • Create playlists with your favourite songs
  • 200k+ sheet music
  • Zero ads
  • Offline sync for iOS users
Premium
9.99€/month
  • 400k+ chords and lyrics
  • Video tutorials
  • Create playlists with your favourite songs
  • 200k+ sheet music
  • Zero ads
  • Offline sync for iOS users
Imagine by A Perfect Circle

Play to learn

ImagineA Perfect Circle

0
0
Tracks
is available only in app!
Tempo
is available only in app!
Transpose
-11 11
Loop
is available only in app!
Sheet
is available only in app!
Scroll Speed
slow fast
Symphorine Schultz's avatar
Created by
Symphorine

Guitar Chords

    Most Popular Scores

    Beastie BoysSabotage Simon & GarfunkelFor Emily, Whenever I May Find Her The Beach BoysKokomo 30 Seconds to MarsHurricane Three Days GraceAnimal I Have Become The Beach BoysGood Vibrations
    (afinação B F# B E G# C#)
    (intro)
    (guitar i)
    q q q q q q q q
    (verse)
    1.,2.,3.,4.,5. 6.
    Eb5B/Eb
    q q q q q q q q 6x w 
    Eb5
    (guitar i) 
    q q q q
    ||------------------------------|
    ||o-----------------------------|
    ||------------------------------|
    ||---1-------1-------1---1------|
    ||o--1-------1-------1---1------|
    ||---1-------1-------1---1------|
    |
    | (guitar iii)
    | s s e s s q. s s e
    ||------------------------------|
    ||o-11-11---11-11-------11-11---|
    ||---8--8----8--8--------8--8---|
    ||------------------------------|
    ||o-----------------------------|
    ||------------------------------|
    1.,2.,3. 4.
    B/Eb
    q q q q 4x q q q q 
    |------------------------------||-----------------------||
    |-----------------------------o||-----------------------||
    |------------------------------||-----------------------||
    |--1-------1-------1---1-------||--1-------1------1--1--||
    |--2-------2-------2---2------o||--2-------2------2--2--||
    |--1-------1-------1---1-------||--1-------1------1--1--||
    |
    | s s e s s q. s s e 4x s s e s s e h
    |------------------------------||-----------------------||
    |-12-12---12-12-------12-12---o||-12-12---12-12---------||
    |--8--8----8--8--------8--8----||--8--8----8--8---------||
    |------------------------------||-----------------------||
    |-----------------------------o||-----------------------||
    |------------------------------||-----------------------||
    (pre-chorus)
    $
    $$
    Eb5B/EbB5Eb5Ab5
    q q q q q q q q q q q q q q q q 
    (chorus)
    1.,2.,3. 4.
    to coda
    to coda
    Ab5B5Eb5
    q q q q q q q q 4x w 
    ||------------------|--------------------------||--------||
    ||o-----------------|-------------------------o||--------||
    ||------------------|--------------------------||--------||
    ||--6---6---9---9---|-13----13----13----13-----||-13-----||
    ||o-6---6---9---9---|-13----13----13----13----o||-13-----||
    ||--6---6---9---9---|-13----13----13----13-----||-13-----||
    |
    | (guitar ii)
    | e e e e e e e e e e e e e e e e 4x w
    ||------------------|--------------------------||--------||
    ||o-----------------|-------------------------o||--------||
    ||------------------|--------------------------||--------||
    ||------6-------9---|-------13-----------------||--------||
    ||o---6---6---9---9-|----13----13----13----13-o||--------||
    ||--6-------9-------|-13----------13----13-----||--------||
    (guitar solo)
    n.c.
    (guitar iv
    q. q q e h +e s s e t t s
    Eb5B/Eb
    q. q q e h +e s s e t t s 
    |---------------------------------|--------------------------------------------|
    |---------------------------------|--------------------------------------------|
    |----------------10---------------|--------------------------------------------|
    |---------------------13----------|--------------------------------------------|
    |-13---------------------------13-|-14------------------(14)-14s16-14-13h14p13-|
    |---------------------------------|--------------------------------------------|
    |
    | (guitar iii)
    | s s e s s q. s s e s s s s s s e h
    |---------------------------------|--------------------------------------------|
    |-11--11---11-11---------11-11----|-12-12-12-12-12-12--------------------------|
    |--8---8----8--8----------8--8----|--8--8--8--8--8--8--------------------------|
    |---------------------------------|--------------------------------------------|
    |---------------------------------|--------------------------------------------|
    |---------------------------------|--------------------------------------------|
    d.s. al coda
    Eb5
    h. s s e q. h +e 
    |-----------------------------|-----------------||
    |-----------------------------|-----------------||
    |-----------------------------|-----------------||
    |-----------------------------|-----------------||
    |-13------------------13-9--8-|-9----8----(8)\--||
    |-----------------------------|-----------------||
    |
    | s s e s s q. s e. w
    |-----------------------------|-----------------||
    |-11--11---11-11------11------|-----------------||
    |--8---8----8--8-------8------|-----------------||
    |-----------------------------|-----------------||
    |-----------------------------|-----------------||
    |-----------------------------|-----------------||
    (verse)
    &
    Eb5
    (guitar i) 
    wx4 q q q q
    |------------||------------------------------|
    |------------||o-----------------------------|
    |------------||------------------------------|
    |------------||---1-------1-------1---1------|
    |------------||o--1-------1-------1---1------|
    |------------||---1-------1-------1---1------|
    |
    | (guitar iii)
    | wx4 s s e s s q. s s e
    |------------||------------------------------|
    |------------||o-11-11---11-11-------11-11---|
    |------------||---8--8----8--8--------8--8---|
    |------------||------------------------------|
    |------------||o-----------------------------|
    |------------||------------------------------|
    1. 2.
    d.s.s. al dbl. coda
    B/Eb
    q q q q q q q q 
    |------------------------------||-------------------------||
    |-----------------------------o||-------------------------||
    |------------------------------||-------------------------||
    |--1-------1-------1---1-------||--1-------1------1--1----||
    |--2-------2-------2---2------o||--2-------2------2--2----||
    |--1-------1-------1---1-------||--1-------1------1--1----||
    |
    | s s e s s q. s s e s s e s s e h
    |------------------------------||-------------------------||
    |-12-12---12-12-------12-12---o||-12-12---12-12-----------||
    |--8--8----8--8--------8--8----||--8--8----8--8-----------||
    |------------------------------||-------------------------||
    |-----------------------------o||-------------------------||
    |------------------------------||-------------------------||
    (outro piano solo)
    &&
    n.c.
    (guitar ii)
    q. e e q s s e q. s s q.
    +q. e e q s s e q. e e q
    +q. e e q s s e q. s s q. +e q q q. w
    W - whole; H - half; Q - quarter; E - 8th; S - 16th; T - 32nd; X - 64th; a - acciaccatura
    + - note tied to previous; . - note dotted; .. - note double dotted
    Uncapitalized letters represent notes that are staccato (1/2 duration)
    Irregular groupings are notated above the duration line
    Duration letters will always appear directly above the note/fret number it represents the
    Duration for. duration letters with no fret number below them represent rests. multi-
    Bar rests are notated in the form wxn, where n is the number of bars to rest for. low
    Melody durations appear below the staff
    h - hammer-on
    p - pull-off
    b - bend
    pb - pre-bend
    r - bend release (if no number after the r, then release immediately)
    /\ - slide into or out of (from/to "nowhere")
    s - legato slide
    s - shift slide
    - natural harmonic
    {n} - artificial harmonic
    N(n) - tapped harmonic
    ~ - vibrato
    tr - trill
    t - tap
    tp - trem. picking
    pm - palm muting
    \n/ - tremolo bar dip; n = amount to dip
    \n - tremolo bar down
    n/ - tremolo bar up
    /n\ - tremolo bar inverted dip
    = - hold bend; also acts as connecting device for hammers/pulls
    - volume swell (louder/softer)
    | - bar
    || - double bar
    ||o - repeat start
    O|| - repeat end
    *| - double bar (ending)
    : - bar (freetime)
    $ - segno
    & - coda
    Tempo markers - = bpm(8/16=s8/s16), where s8 = swing 8ths, s16 = swing 16ths